ISO-10303-21;
HEADER;
/* Generated by software containing ST-Developer
 * from STEP Tools, Inc. (www.steptools.com) 
 */

FILE_DESCRIPTION(
/* description */ (''),
/* implementation_level */ '2;1');

FILE_NAME(
/* name */ 'C:\\Users\\mulla\\Documents\\SEI Models\\ASRM\\ASRM12.stp',

/* time_stamp */ '2019-06-06T16:46:10-04:00',
/* author */ ('mulla'),
/* organization */ (''),
/* preprocessor_version */ 'ST-DEVELOPER v16.1',
/* originating_system */ 'Autodesk Inventor 2016',
/* authorisation */ '');

FILE_SCHEMA (('AUTOMOTIVE_DESIGN { 1 0 10303 214 3 1 1 }'));
ENDSEC;

DATA;
#10=MECHANICAL_DESIGN_GEOMETRIC_PRESENTATION_REPRESENTATION('',(#14,#13,
#15),#167);
#11=SHAPE_REPRESENTATION_RELATIONSHIP('SRR','None',#176,#12);
#12=ADVANCED_BREP_SHAPE_REPRESENTATION('',(#16,#17,#18),#166);
#13=STYLED_ITEM('',(#185),#16);
#14=STYLED_ITEM('',(#185),#17);
#15=STYLED_ITEM('',(#185),#18);
#16=MANIFOLD_SOLID_BREP('Solid1',#91);
#17=MANIFOLD_SOLID_BREP('Solid2',#92);
#18=MANIFOLD_SOLID_BREP('Solid3',#93);
#19=PLANE('',#98);
#20=PLANE('',#99);
#21=PLANE('',#103);
#22=PLANE('',#104);
#23=PLANE('',#108);
#24=PLANE('',#109);
#25=FACE_BOUND('',#38,.T.);
#26=FACE_BOUND('',#42,.T.);
#27=FACE_BOUND('',#46,.T.);
#28=FACE_OUTER_BOUND('',#37,.T.);
#29=FACE_OUTER_BOUND('',#39,.T.);
#30=FACE_OUTER_BOUND('',#40,.T.);
#31=FACE_OUTER_BOUND('',#41,.T.);
#32=FACE_OUTER_BOUND('',#43,.T.);
#33=FACE_OUTER_BOUND('',#44,.T.);
#34=FACE_OUTER_BOUND('',#45,.T.);
#35=FACE_OUTER_BOUND('',#47,.T.);
#36=FACE_OUTER_BOUND('',#48,.T.);
#37=EDGE_LOOP('',(#67));
#38=EDGE_LOOP('',(#68));
#39=EDGE_LOOP('',(#69));
#40=EDGE_LOOP('',(#70));
#41=EDGE_LOOP('',(#71));
#42=EDGE_LOOP('',(#72));
#43=EDGE_LOOP('',(#73));
#44=EDGE_LOOP('',(#74));
#45=EDGE_LOOP('',(#75));
#46=EDGE_LOOP('',(#76));
#47=EDGE_LOOP('',(#77));
#48=EDGE_LOOP('',(#78));
#49=CIRCLE('',#96,1.5);
#50=CIRCLE('',#97,1.5);
#51=CIRCLE('',#101,0.35);
#52=CIRCLE('',#102,0.35);
#53=CIRCLE('',#106,0.35);
#54=CIRCLE('',#107,0.35);
#55=VERTEX_POINT('',#144);
#56=VERTEX_POINT('',#146);
#57=VERTEX_POINT('',#151);
#58=VERTEX_POINT('',#153);
#59=VERTEX_POINT('',#158);
#60=VERTEX_POINT('',#160);
#61=EDGE_CURVE('',#55,#55,#49,.T.);
#62=EDGE_CURVE('',#56,#56,#50,.T.);
#63=EDGE_CURVE('',#57,#57,#51,.T.);
#64=EDGE_CURVE('',#58,#58,#52,.T.);
#65=EDGE_CURVE('',#59,#59,#53,.T.);
#66=EDGE_CURVE('',#60,#60,#54,.T.);
#67=ORIENTED_EDGE('',*,*,#61,.F.);
#68=ORIENTED_EDGE('',*,*,#62,.F.);
#69=ORIENTED_EDGE('',*,*,#62,.T.);
#70=ORIENTED_EDGE('',*,*,#61,.T.);
#71=ORIENTED_EDGE('',*,*,#63,.F.);
#72=ORIENTED_EDGE('',*,*,#64,.F.);
#73=ORIENTED_EDGE('',*,*,#64,.T.);
#74=ORIENTED_EDGE('',*,*,#63,.T.);
#75=ORIENTED_EDGE('',*,*,#65,.F.);
#76=ORIENTED_EDGE('',*,*,#66,.F.);
#77=ORIENTED_EDGE('',*,*,#66,.T.);
#78=ORIENTED_EDGE('',*,*,#65,.T.);
#79=CYLINDRICAL_SURFACE('',#95,1.5);
#80=CYLINDRICAL_SURFACE('',#100,0.35);
#81=CYLINDRICAL_SURFACE('',#105,0.35);
#82=ADVANCED_FACE('',(#28,#25),#79,.T.);
#83=ADVANCED_FACE('',(#29),#19,.F.);
#84=ADVANCED_FACE('',(#30),#20,.T.);
#85=ADVANCED_FACE('',(#31,#26),#80,.T.);
#86=ADVANCED_FACE('',(#32),#21,.F.);
#87=ADVANCED_FACE('',(#33),#22,.T.);
#88=ADVANCED_FACE('',(#34,#27),#81,.T.);
#89=ADVANCED_FACE('',(#35),#23,.T.);
#90=ADVANCED_FACE('',(#36),#24,.F.);
#91=CLOSED_SHELL('',(#82,#83,#84));
#92=CLOSED_SHELL('',(#85,#86,#87));
#93=CLOSED_SHELL('',(#88,#89,#90));
#94=AXIS2_PLACEMENT_3D('placement',#142,#110,#111);
#95=AXIS2_PLACEMENT_3D('',#143,#112,#113);
#96=AXIS2_PLACEMENT_3D('',#145,#114,#115);
#97=AXIS2_PLACEMENT_3D('',#147,#116,#117);
#98=AXIS2_PLACEMENT_3D('',#148,#118,#119);
#99=AXIS2_PLACEMENT_3D('',#149,#120,#121);
#100=AXIS2_PLACEMENT_3D('',#150,#122,#123);
#101=AXIS2_PLACEMENT_3D('',#152,#124,#125);
#102=AXIS2_PLACEMENT_3D('',#154,#126,#127);
#103=AXIS2_PLACEMENT_3D('',#155,#128,#129);
#104=AXIS2_PLACEMENT_3D('',#156,#130,#131);
#105=AXIS2_PLACEMENT_3D('',#157,#132,#133);
#106=AXIS2_PLACEMENT_3D('',#159,#134,#135);
#107=AXIS2_PLACEMENT_3D('',#161,#136,#137);
#108=AXIS2_PLACEMENT_3D('',#162,#138,#139);
#109=AXIS2_PLACEMENT_3D('',#163,#140,#141);
#110=DIRECTION('axis',(0.,0.,1.));
#111=DIRECTION('refdir',(1.,0.,0.));
#112=DIRECTION('center_axis',(1.,0.,0.));
#113=DIRECTION('ref_axis',(0.,-1.,0.));
#114=DIRECTION('center_axis',(1.,0.,0.));
#115=DIRECTION('ref_axis',(0.,-1.,0.));
#116=DIRECTION('center_axis',(-1.,0.,0.));
#117=DIRECTION('ref_axis',(0.,-1.,0.));
#118=DIRECTION('center_axis',(1.,0.,0.));
#119=DIRECTION('ref_axis',(0.,0.,-1.));
#120=DIRECTION('center_axis',(1.,0.,0.));
#121=DIRECTION('ref_axis',(0.,0.,-1.));
#122=DIRECTION('center_axis',(1.,0.,0.));
#123=DIRECTION('ref_axis',(0.,0.,1.));
#124=DIRECTION('center_axis',(1.,0.,0.));
#125=DIRECTION('ref_axis',(0.,0.,1.));
#126=DIRECTION('center_axis',(-1.,0.,0.));
#127=DIRECTION('ref_axis',(0.,0.,1.));
#128=DIRECTION('center_axis',(1.,0.,0.));
#129=DIRECTION('ref_axis',(0.,0.,-1.));
#130=DIRECTION('center_axis',(1.,0.,0.));
#131=DIRECTION('ref_axis',(0.,0.,-1.));
#132=DIRECTION('center_axis',(-1.,0.,0.));
#133=DIRECTION('ref_axis',(0.,0.,-1.));
#134=DIRECTION('center_axis',(-1.,0.,0.));
#135=DIRECTION('ref_axis',(0.,0.,-1.));
#136=DIRECTION('center_axis',(1.,0.,0.));
#137=DIRECTION('ref_axis',(0.,0.,-1.));
#138=DIRECTION('center_axis',(1.,0.,0.));
#139=DIRECTION('ref_axis',(0.,0.,-1.));
#140=DIRECTION('center_axis',(1.,0.,0.));
#141=DIRECTION('ref_axis',(0.,0.,-1.));
#142=CARTESIAN_POINT('',(0.,0.,0.));
#143=CARTESIAN_POINT('Origin',(0.,0.,0.));
#144=CARTESIAN_POINT('',(9.,1.5,1.83697019872103E-16));
#145=CARTESIAN_POINT('Origin',(9.,0.,0.));
#146=CARTESIAN_POINT('',(0.,1.5,1.83697019872103E-16));
#147=CARTESIAN_POINT('Origin',(0.,0.,0.));
#148=CARTESIAN_POINT('Origin',(0.,-9.24069061438667E-17,-3.85494105772624E-17));
#149=CARTESIAN_POINT('Origin',(9.,-9.24069061438667E-17,-3.85494105772624E-17));
#150=CARTESIAN_POINT('Origin',(9.,0.,0.));
#151=CARTESIAN_POINT('',(37.,4.28626379701574E-17,-0.35));
#152=CARTESIAN_POINT('Origin',(37.,0.,0.));
#153=CARTESIAN_POINT('',(9.,4.28626379701574E-17,-0.35));
#154=CARTESIAN_POINT('Origin',(9.,0.,0.));
#155=CARTESIAN_POINT('Origin',(9.,-5.16286748802621E-18,1.38976214735655E-17));
#156=CARTESIAN_POINT('Origin',(37.,-5.16286748802621E-18,1.38976214735655E-17));
#157=CARTESIAN_POINT('Origin',(0.,0.,0.));
#158=CARTESIAN_POINT('',(-28.,4.28626379701574E-17,0.35));
#159=CARTESIAN_POINT('Origin',(-28.,0.,0.));
#160=CARTESIAN_POINT('',(0.,4.28626379701574E-17,0.35));
#161=CARTESIAN_POINT('Origin',(0.,0.,0.));
#162=CARTESIAN_POINT('Origin',(0.,-5.16286748802621E-18,-1.38976214735655E-17));
#163=CARTESIAN_POINT('Origin',(-28.,-5.16286748802621E-18,-1.38976214735655E-17));
#164=UNCERTAINTY_MEASURE_WITH_UNIT(LENGTH_MEASURE(0.01),#168,
'DISTANCE_ACCURACY_VALUE',
'Maximum model space distance between geometric entities at asserted c
onnectivities');
#165=UNCERTAINTY_MEASURE_WITH_UNIT(LENGTH_MEASURE(1.E-6),#168,
'DISTANCE_ACCURACY_VALUE',
'Maximum model space distance between geometric entities at asserted c
onnectivities');
#166=(
GEOMETRIC_REPRESENTATION_CONTEXT(3)
GLOBAL_UNCERTAINTY_ASSIGNED_CONTEXT((#164))
GLOBAL_UNIT_ASSIGNED_CONTEXT((#168,#171,#169))
REPRESENTATION_CONTEXT('','3D')
);
#167=(
GEOMETRIC_REPRESENTATION_CONTEXT(3)
GLOBAL_UNCERTAINTY_ASSIGNED_CONTEXT((#165))
GLOBAL_UNIT_ASSIGNED_CONTEXT((#168,#171,#169))
REPRESENTATION_CONTEXT('','3D')
);
#168=(
LENGTH_UNIT()
NAMED_UNIT(*)
SI_UNIT(.MILLI.,.METRE.)
);
#169=(
NAMED_UNIT(*)
SI_UNIT($,.STERADIAN.)
SOLID_ANGLE_UNIT()
);
#170=DIMENSIONAL_EXPONENTS(0.,0.,0.,0.,0.,0.,0.);
#171=(
CONVERSION_BASED_UNIT('degree',#173)
NAMED_UNIT(#170)
PLANE_ANGLE_UNIT()
);
#172=(
NAMED_UNIT(*)
PLANE_ANGLE_UNIT()
SI_UNIT($,.RADIAN.)
);
#173=PLANE_ANGLE_MEASURE_WITH_UNIT(PLANE_ANGLE_MEASURE(0.01745329252),#172);
#174=SHAPE_DEFINITION_REPRESENTATION(#175,#176);
#175=PRODUCT_DEFINITION_SHAPE('',$,#178);
#176=SHAPE_REPRESENTATION('',(#94),#166);
#177=PRODUCT_DEFINITION_CONTEXT('part definition',#182,'design');
#178=PRODUCT_DEFINITION('ASRM12','ASRM12',#179,#177);
#179=PRODUCT_DEFINITION_FORMATION('',$,#184);
#180=PRODUCT_RELATED_PRODUCT_CATEGORY('ASRM12','ASRM12',(#184));
#181=APPLICATION_PROTOCOL_DEFINITION('international standard',
'automotive_design',2009,#182);
#182=APPLICATION_CONTEXT(
'Core Data for Automotive Mechanical Design Process');
#183=PRODUCT_CONTEXT('part definition',#182,'mechanical');
#184=PRODUCT('ASRM12','ASRM12',$,(#183));
#185=PRESENTATION_STYLE_ASSIGNMENT((#186));
#186=SURFACE_STYLE_USAGE(.BOTH.,#187);
#187=SURFACE_SIDE_STYLE('',(#188));
#188=SURFACE_STYLE_FILL_AREA(#189);
#189=FILL_AREA_STYLE('',(#190));
#190=FILL_AREA_STYLE_COLOUR('',#191);
#191=COLOUR_RGB('',0.749019607843137,0.749019607843137,0.749019607843137);
ENDSEC;
END-ISO-10303-21;
