ISO-10303-21;
HEADER;
/* Generated by software containing ST-Developer
 * from STEP Tools, Inc. (www.steptools.com) 
 */

FILE_DESCRIPTION(
/* description */ (''),
/* implementation_level */ '2;1');

FILE_NAME(
/* name */ 
'C:\\Users\\mulla\\Documents\\SEI Models\\Inventor Files\\CB\\CB10_stp.
stp',
/* time_stamp */ '2019-06-27T14:44:10-04:00',
/* author */ ('mulla'),
/* organization */ (''),
/* preprocessor_version */ 'ST-DEVELOPER v16.1',
/* originating_system */ 'Autodesk Inventor 2016',
/* authorisation */ '');

FILE_SCHEMA (('AUTOMOTIVE_DESIGN { 1 0 10303 214 3 1 1 }'));
ENDSEC;

DATA;
#10=MECHANICAL_DESIGN_GEOMETRIC_PRESENTATION_REPRESENTATION('',(#22,#21,
#23),#269);
#11=FACE_BOUND('',#46,.T.);
#12=FACE_BOUND('',#50,.T.);
#13=CIRCLE('',#170,0.4);
#14=CIRCLE('',#171,0.4);
#15=CIRCLE('',#175,0.4);
#16=CIRCLE('',#176,0.4);
#17=CYLINDRICAL_SURFACE('',#169,0.4);
#18=CYLINDRICAL_SURFACE('',#174,0.4);
#19=SHAPE_REPRESENTATION_RELATIONSHIP('SRR','None',#278,#20);
#20=ADVANCED_BREP_SHAPE_REPRESENTATION('',(#24,#25,#26),#268);
#21=STYLED_ITEM('',(#287),#24);
#22=STYLED_ITEM('',(#287),#25);
#23=STYLED_ITEM('',(#287),#26);
#24=MANIFOLD_SOLID_BREP('Solid1',#159);
#25=MANIFOLD_SOLID_BREP('Solid2',#160);
#26=MANIFOLD_SOLID_BREP('Solid3',#161);
#27=FACE_OUTER_BOUND('',#39,.T.);
#28=FACE_OUTER_BOUND('',#40,.T.);
#29=FACE_OUTER_BOUND('',#41,.T.);
#30=FACE_OUTER_BOUND('',#42,.T.);
#31=FACE_OUTER_BOUND('',#43,.T.);
#32=FACE_OUTER_BOUND('',#44,.T.);
#33=FACE_OUTER_BOUND('',#45,.T.);
#34=FACE_OUTER_BOUND('',#47,.T.);
#35=FACE_OUTER_BOUND('',#48,.T.);
#36=FACE_OUTER_BOUND('',#49,.T.);
#37=FACE_OUTER_BOUND('',#51,.T.);
#38=FACE_OUTER_BOUND('',#52,.T.);
#39=EDGE_LOOP('',(#105,#106,#107,#108));
#40=EDGE_LOOP('',(#109,#110,#111,#112));
#41=EDGE_LOOP('',(#113,#114,#115,#116));
#42=EDGE_LOOP('',(#117,#118,#119,#120));
#43=EDGE_LOOP('',(#121,#122,#123,#124));
#44=EDGE_LOOP('',(#125,#126,#127,#128));
#45=EDGE_LOOP('',(#129));
#46=EDGE_LOOP('',(#130));
#47=EDGE_LOOP('',(#131));
#48=EDGE_LOOP('',(#132));
#49=EDGE_LOOP('',(#133));
#50=EDGE_LOOP('',(#134));
#51=EDGE_LOOP('',(#135));
#52=EDGE_LOOP('',(#136));
#53=LINE('',#229,#65);
#54=LINE('',#231,#66);
#55=LINE('',#233,#67);
#56=LINE('',#234,#68);
#57=LINE('',#237,#69);
#58=LINE('',#239,#70);
#59=LINE('',#240,#71);
#60=LINE('',#243,#72);
#61=LINE('',#245,#73);
#62=LINE('',#246,#74);
#63=LINE('',#248,#75);
#64=LINE('',#249,#76);
#65=VECTOR('',#183,9.5);
#66=VECTOR('',#184,9.5);
#67=VECTOR('',#185,9.5);
#68=VECTOR('',#186,9.5);
#69=VECTOR('',#189,48.);
#70=VECTOR('',#190,48.);
#71=VECTOR('',#191,9.5);
#72=VECTOR('',#194,9.5);
#73=VECTOR('',#195,9.5);
#74=VECTOR('',#196,9.5);
#75=VECTOR('',#199,48.);
#76=VECTOR('',#200,48.);
#77=VERTEX_POINT('',#227);
#78=VERTEX_POINT('',#228);
#79=VERTEX_POINT('',#230);
#80=VERTEX_POINT('',#232);
#81=VERTEX_POINT('',#236);
#82=VERTEX_POINT('',#238);
#83=VERTEX_POINT('',#242);
#84=VERTEX_POINT('',#244);
#85=VERTEX_POINT('',#253);
#86=VERTEX_POINT('',#255);
#87=VERTEX_POINT('',#260);
#88=VERTEX_POINT('',#262);
#89=EDGE_CURVE('',#77,#78,#53,.T.);
#90=EDGE_CURVE('',#77,#79,#54,.T.);
#91=EDGE_CURVE('',#80,#79,#55,.T.);
#92=EDGE_CURVE('',#78,#80,#56,.T.);
#93=EDGE_CURVE('',#78,#81,#57,.T.);
#94=EDGE_CURVE('',#82,#80,#58,.T.);
#95=EDGE_CURVE('',#81,#82,#59,.T.);
#96=EDGE_CURVE('',#81,#83,#60,.T.);
#97=EDGE_CURVE('',#84,#82,#61,.T.);
#98=EDGE_CURVE('',#83,#84,#62,.T.);
#99=EDGE_CURVE('',#83,#77,#63,.T.);
#100=EDGE_CURVE('',#79,#84,#64,.T.);
#101=EDGE_CURVE('',#85,#85,#13,.T.);
#102=EDGE_CURVE('',#86,#86,#14,.T.);
#103=EDGE_CURVE('',#87,#87,#15,.T.);
#104=EDGE_CURVE('',#88,#88,#16,.T.);
#105=ORIENTED_EDGE('',*,*,#89,.F.);
#106=ORIENTED_EDGE('',*,*,#90,.T.);
#107=ORIENTED_EDGE('',*,*,#91,.F.);
#108=ORIENTED_EDGE('',*,*,#92,.F.);
#109=ORIENTED_EDGE('',*,*,#93,.F.);
#110=ORIENTED_EDGE('',*,*,#92,.T.);
#111=ORIENTED_EDGE('',*,*,#94,.F.);
#112=ORIENTED_EDGE('',*,*,#95,.F.);
#113=ORIENTED_EDGE('',*,*,#96,.F.);
#114=ORIENTED_EDGE('',*,*,#95,.T.);
#115=ORIENTED_EDGE('',*,*,#97,.F.);
#116=ORIENTED_EDGE('',*,*,#98,.F.);
#117=ORIENTED_EDGE('',*,*,#99,.F.);
#118=ORIENTED_EDGE('',*,*,#98,.T.);
#119=ORIENTED_EDGE('',*,*,#100,.F.);
#120=ORIENTED_EDGE('',*,*,#90,.F.);
#121=ORIENTED_EDGE('',*,*,#99,.T.);
#122=ORIENTED_EDGE('',*,*,#89,.T.);
#123=ORIENTED_EDGE('',*,*,#93,.T.);
#124=ORIENTED_EDGE('',*,*,#96,.T.);
#125=ORIENTED_EDGE('',*,*,#100,.T.);
#126=ORIENTED_EDGE('',*,*,#97,.T.);
#127=ORIENTED_EDGE('',*,*,#94,.T.);
#128=ORIENTED_EDGE('',*,*,#91,.T.);
#129=ORIENTED_EDGE('',*,*,#101,.F.);
#130=ORIENTED_EDGE('',*,*,#102,.F.);
#131=ORIENTED_EDGE('',*,*,#102,.T.);
#132=ORIENTED_EDGE('',*,*,#101,.T.);
#133=ORIENTED_EDGE('',*,*,#103,.F.);
#134=ORIENTED_EDGE('',*,*,#104,.F.);
#135=ORIENTED_EDGE('',*,*,#104,.T.);
#136=ORIENTED_EDGE('',*,*,#103,.T.);
#137=PLANE('',#163);
#138=PLANE('',#164);
#139=PLANE('',#165);
#140=PLANE('',#166);
#141=PLANE('',#167);
#142=PLANE('',#168);
#143=PLANE('',#172);
#144=PLANE('',#173);
#145=PLANE('',#177);
#146=PLANE('',#178);
#147=ADVANCED_FACE('',(#27),#137,.T.);
#148=ADVANCED_FACE('',(#28),#138,.T.);
#149=ADVANCED_FACE('',(#29),#139,.T.);
#150=ADVANCED_FACE('',(#30),#140,.T.);
#151=ADVANCED_FACE('',(#31),#141,.F.);
#152=ADVANCED_FACE('',(#32),#142,.T.);
#153=ADVANCED_FACE('',(#33,#11),#17,.T.);
#154=ADVANCED_FACE('',(#34),#143,.F.);
#155=ADVANCED_FACE('',(#35),#144,.T.);
#156=ADVANCED_FACE('',(#36,#12),#18,.T.);
#157=ADVANCED_FACE('',(#37),#145,.T.);
#158=ADVANCED_FACE('',(#38),#146,.F.);
#159=CLOSED_SHELL('',(#147,#148,#149,#150,#151,#152));
#160=CLOSED_SHELL('',(#153,#154,#155));
#161=CLOSED_SHELL('',(#156,#157,#158));
#162=AXIS2_PLACEMENT_3D('placement',#225,#179,#180);
#163=AXIS2_PLACEMENT_3D('',#226,#181,#182);
#164=AXIS2_PLACEMENT_3D('',#235,#187,#188);
#165=AXIS2_PLACEMENT_3D('',#241,#192,#193);
#166=AXIS2_PLACEMENT_3D('',#247,#197,#198);
#167=AXIS2_PLACEMENT_3D('',#250,#201,#202);
#168=AXIS2_PLACEMENT_3D('',#251,#203,#204);
#169=AXIS2_PLACEMENT_3D('',#252,#205,#206);
#170=AXIS2_PLACEMENT_3D('',#254,#207,#208);
#171=AXIS2_PLACEMENT_3D('',#256,#209,#210);
#172=AXIS2_PLACEMENT_3D('',#257,#211,#212);
#173=AXIS2_PLACEMENT_3D('',#258,#213,#214);
#174=AXIS2_PLACEMENT_3D('',#259,#215,#216);
#175=AXIS2_PLACEMENT_3D('',#261,#217,#218);
#176=AXIS2_PLACEMENT_3D('',#263,#219,#220);
#177=AXIS2_PLACEMENT_3D('',#264,#221,#222);
#178=AXIS2_PLACEMENT_3D('',#265,#223,#224);
#179=DIRECTION('axis',(0.,0.,1.));
#180=DIRECTION('refdir',(1.,0.,0.));
#181=DIRECTION('center_axis',(1.,0.,0.));
#182=DIRECTION('ref_axis',(0.,0.,-1.));
#183=DIRECTION('',(0.,0.,1.));
#184=DIRECTION('',(0.,1.,0.));
#185=DIRECTION('',(0.,0.,-1.));
#186=DIRECTION('',(0.,1.,0.));
#187=DIRECTION('center_axis',(0.,0.,1.));
#188=DIRECTION('ref_axis',(1.,0.,0.));
#189=DIRECTION('',(-1.,0.,0.));
#190=DIRECTION('',(1.,0.,0.));
#191=DIRECTION('',(0.,1.,0.));
#192=DIRECTION('center_axis',(-1.,0.,0.));
#193=DIRECTION('ref_axis',(0.,0.,1.));
#194=DIRECTION('',(0.,0.,-1.));
#195=DIRECTION('',(0.,0.,1.));
#196=DIRECTION('',(0.,1.,0.));
#197=DIRECTION('center_axis',(0.,0.,-1.));
#198=DIRECTION('ref_axis',(-1.,0.,0.));
#199=DIRECTION('',(1.,0.,0.));
#200=DIRECTION('',(-1.,0.,0.));
#201=DIRECTION('center_axis',(0.,1.,0.));
#202=DIRECTION('ref_axis',(0.,0.,1.));
#203=DIRECTION('center_axis',(0.,1.,0.));
#204=DIRECTION('ref_axis',(0.,0.,1.));
#205=DIRECTION('center_axis',(1.,0.,0.));
#206=DIRECTION('ref_axis',(0.,0.,1.));
#207=DIRECTION('center_axis',(1.,0.,0.));
#208=DIRECTION('ref_axis',(0.,0.,1.));
#209=DIRECTION('center_axis',(-1.,0.,0.));
#210=DIRECTION('ref_axis',(0.,0.,1.));
#211=DIRECTION('center_axis',(1.,0.,0.));
#212=DIRECTION('ref_axis',(0.,0.,-1.));
#213=DIRECTION('center_axis',(1.,0.,0.));
#214=DIRECTION('ref_axis',(0.,0.,-1.));
#215=DIRECTION('center_axis',(-1.,0.,0.));
#216=DIRECTION('ref_axis',(0.,0.,-1.));
#217=DIRECTION('center_axis',(-1.,0.,0.));
#218=DIRECTION('ref_axis',(0.,0.,-1.));
#219=DIRECTION('center_axis',(1.,0.,0.));
#220=DIRECTION('ref_axis',(0.,0.,-1.));
#221=DIRECTION('center_axis',(1.,0.,0.));
#222=DIRECTION('ref_axis',(0.,0.,-1.));
#223=DIRECTION('center_axis',(1.,0.,0.));
#224=DIRECTION('ref_axis',(0.,0.,-1.));
#225=CARTESIAN_POINT('',(0.,0.,0.));
#226=CARTESIAN_POINT('Origin',(48.,0.,9.5));
#227=CARTESIAN_POINT('',(48.,0.,0.));
#228=CARTESIAN_POINT('',(48.,0.,9.5));
#229=CARTESIAN_POINT('',(48.,0.,0.));
#230=CARTESIAN_POINT('',(48.,9.5,0.));
#231=CARTESIAN_POINT('',(48.,0.,0.));
#232=CARTESIAN_POINT('',(48.,9.5,9.5));
#233=CARTESIAN_POINT('',(48.,9.5,0.));
#234=CARTESIAN_POINT('',(48.,0.,9.5));
#235=CARTESIAN_POINT('Origin',(0.,0.,9.5));
#236=CARTESIAN_POINT('',(0.,0.,9.5));
#237=CARTESIAN_POINT('',(48.,0.,9.5));
#238=CARTESIAN_POINT('',(0.,9.5,9.5));
#239=CARTESIAN_POINT('',(48.,9.5,9.5));
#240=CARTESIAN_POINT('',(0.,0.,9.5));
#241=CARTESIAN_POINT('Origin',(0.,0.,0.));
#242=CARTESIAN_POINT('',(0.,0.,0.));
#243=CARTESIAN_POINT('',(0.,0.,9.5));
#244=CARTESIAN_POINT('',(0.,9.5,0.));
#245=CARTESIAN_POINT('',(0.,9.5,9.5));
#246=CARTESIAN_POINT('',(0.,0.,0.));
#247=CARTESIAN_POINT('Origin',(48.,0.,0.));
#248=CARTESIAN_POINT('',(0.,0.,0.));
#249=CARTESIAN_POINT('',(0.,9.5,0.));
#250=CARTESIAN_POINT('Origin',(24.,0.,4.75));
#251=CARTESIAN_POINT('Origin',(24.,9.5,4.75));
#252=CARTESIAN_POINT('Origin',(48.,4.75,4.75));
#253=CARTESIAN_POINT('',(73.4,4.75,4.35));
#254=CARTESIAN_POINT('Origin',(73.4,4.75,4.75));
#255=CARTESIAN_POINT('',(48.,4.75,4.35));
#256=CARTESIAN_POINT('Origin',(48.,4.75,4.75));
#257=CARTESIAN_POINT('Origin',(48.,4.75,4.75));
#258=CARTESIAN_POINT('Origin',(73.4,4.75,4.75));
#259=CARTESIAN_POINT('Origin',(0.,4.75,4.75));
#260=CARTESIAN_POINT('',(-25.4,4.75,5.15));
#261=CARTESIAN_POINT('Origin',(-25.4,4.75,4.75));
#262=CARTESIAN_POINT('',(0.,4.75,5.15));
#263=CARTESIAN_POINT('Origin',(0.,4.75,4.75));
#264=CARTESIAN_POINT('Origin',(0.,4.75,4.75));
#265=CARTESIAN_POINT('Origin',(-25.4,4.75,4.75));
#266=UNCERTAINTY_MEASURE_WITH_UNIT(LENGTH_MEASURE(0.01),#270,
'DISTANCE_ACCURACY_VALUE',
'Maximum model space distance between geometric entities at asserted c
onnectivities');
#267=UNCERTAINTY_MEASURE_WITH_UNIT(LENGTH_MEASURE(1.E-6),#270,
'DISTANCE_ACCURACY_VALUE',
'Maximum model space distance between geometric entities at asserted c
onnectivities');
#268=(
GEOMETRIC_REPRESENTATION_CONTEXT(3)
GLOBAL_UNCERTAINTY_ASSIGNED_CONTEXT((#266))
GLOBAL_UNIT_ASSIGNED_CONTEXT((#270,#273,#271))
REPRESENTATION_CONTEXT('','3D')
);
#269=(
GEOMETRIC_REPRESENTATION_CONTEXT(3)
GLOBAL_UNCERTAINTY_ASSIGNED_CONTEXT((#267))
GLOBAL_UNIT_ASSIGNED_CONTEXT((#270,#273,#271))
REPRESENTATION_CONTEXT('','3D')
);
#270=(
LENGTH_UNIT()
NAMED_UNIT(*)
SI_UNIT(.MILLI.,.METRE.)
);
#271=(
NAMED_UNIT(*)
SI_UNIT($,.STERADIAN.)
SOLID_ANGLE_UNIT()
);
#272=DIMENSIONAL_EXPONENTS(0.,0.,0.,0.,0.,0.,0.);
#273=(
CONVERSION_BASED_UNIT('degree',#275)
NAMED_UNIT(#272)
PLANE_ANGLE_UNIT()
);
#274=(
NAMED_UNIT(*)
PLANE_ANGLE_UNIT()
SI_UNIT($,.RADIAN.)
);
#275=PLANE_ANGLE_MEASURE_WITH_UNIT(PLANE_ANGLE_MEASURE(0.01745329252),#274);
#276=SHAPE_DEFINITION_REPRESENTATION(#277,#278);
#277=PRODUCT_DEFINITION_SHAPE('',$,#280);
#278=SHAPE_REPRESENTATION('',(#162),#268);
#279=PRODUCT_DEFINITION_CONTEXT('part definition',#284,'design');
#280=PRODUCT_DEFINITION('CB10','CB10',#281,#279);
#281=PRODUCT_DEFINITION_FORMATION('',$,#286);
#282=PRODUCT_RELATED_PRODUCT_CATEGORY('CB10','CB10',(#286));
#283=APPLICATION_PROTOCOL_DEFINITION('international standard',
'automotive_design',2009,#284);
#284=APPLICATION_CONTEXT(
'Core Data for Automotive Mechanical Design Process');
#285=PRODUCT_CONTEXT('part definition',#284,'mechanical');
#286=PRODUCT('CB10','CB10',$,(#285));
#287=PRESENTATION_STYLE_ASSIGNMENT((#288));
#288=SURFACE_STYLE_USAGE(.BOTH.,#289);
#289=SURFACE_SIDE_STYLE('',(#290));
#290=SURFACE_STYLE_FILL_AREA(#291);
#291=FILL_AREA_STYLE('',(#292));
#292=FILL_AREA_STYLE_COLOUR('',#293);
#293=COLOUR_RGB('',0.749019607843137,0.749019607843137,0.749019607843137);
ENDSEC;
END-ISO-10303-21;
