ISO-10303-21;
HEADER;
/* Generated by software containing ST-Developer
 * from STEP Tools, Inc. (www.steptools.com) 
 */

FILE_DESCRIPTION(
/* description */ (''),
/* implementation_level */ '2;1');

FILE_NAME(
/* name */ 
'C:\\Users\\mulla\\Documents\\SEI Models\\Inventor Files\\CF-CFM\\3D\\
CF12.stp',
/* time_stamp */ '2019-06-10T18:19:24-04:00',
/* author */ ('mulla'),
/* organization */ (''),
/* preprocessor_version */ 'ST-DEVELOPER v16.1',
/* originating_system */ 'Autodesk Inventor 2016',
/* authorisation */ '');

FILE_SCHEMA (('AUTOMOTIVE_DESIGN { 1 0 10303 214 3 1 1 }'));
ENDSEC;

DATA;
#10=MECHANICAL_DESIGN_GEOMETRIC_PRESENTATION_REPRESENTATION('',(#80,#81,
#82,#79,#83,#84),#170);
#11=SHAPE_REPRESENTATION_RELATIONSHIP('SRR','None',#179,#12);
#12=ADVANCED_BREP_SHAPE_REPRESENTATION('',(#13,#14,#15),#169);
#13=MANIFOLD_SOLID_BREP('Solid1',#94);
#14=MANIFOLD_SOLID_BREP('Solid2',#95);
#15=MANIFOLD_SOLID_BREP('Solid3',#96);
#16=PLANE('',#101);
#17=PLANE('',#102);
#18=PLANE('',#106);
#19=PLANE('',#107);
#20=PLANE('',#111);
#21=PLANE('',#112);
#22=FACE_BOUND('',#35,.T.);
#23=FACE_BOUND('',#39,.T.);
#24=FACE_BOUND('',#43,.T.);
#25=FACE_OUTER_BOUND('',#34,.T.);
#26=FACE_OUTER_BOUND('',#36,.T.);
#27=FACE_OUTER_BOUND('',#37,.T.);
#28=FACE_OUTER_BOUND('',#38,.T.);
#29=FACE_OUTER_BOUND('',#40,.T.);
#30=FACE_OUTER_BOUND('',#41,.T.);
#31=FACE_OUTER_BOUND('',#42,.T.);
#32=FACE_OUTER_BOUND('',#44,.T.);
#33=FACE_OUTER_BOUND('',#45,.T.);
#34=EDGE_LOOP('',(#64));
#35=EDGE_LOOP('',(#65));
#36=EDGE_LOOP('',(#66));
#37=EDGE_LOOP('',(#67));
#38=EDGE_LOOP('',(#68));
#39=EDGE_LOOP('',(#69));
#40=EDGE_LOOP('',(#70));
#41=EDGE_LOOP('',(#71));
#42=EDGE_LOOP('',(#72));
#43=EDGE_LOOP('',(#73));
#44=EDGE_LOOP('',(#74));
#45=EDGE_LOOP('',(#75));
#46=CIRCLE('',#99,1.35);
#47=CIRCLE('',#100,1.35);
#48=CIRCLE('',#104,0.275);
#49=CIRCLE('',#105,0.275);
#50=CIRCLE('',#109,0.275);
#51=CIRCLE('',#110,0.275);
#52=VERTEX_POINT('',#147);
#53=VERTEX_POINT('',#149);
#54=VERTEX_POINT('',#154);
#55=VERTEX_POINT('',#156);
#56=VERTEX_POINT('',#161);
#57=VERTEX_POINT('',#163);
#58=EDGE_CURVE('',#52,#52,#46,.T.);
#59=EDGE_CURVE('',#53,#53,#47,.T.);
#60=EDGE_CURVE('',#54,#54,#48,.T.);
#61=EDGE_CURVE('',#55,#55,#49,.T.);
#62=EDGE_CURVE('',#56,#56,#50,.T.);
#63=EDGE_CURVE('',#57,#57,#51,.T.);
#64=ORIENTED_EDGE('',*,*,#58,.F.);
#65=ORIENTED_EDGE('',*,*,#59,.F.);
#66=ORIENTED_EDGE('',*,*,#59,.T.);
#67=ORIENTED_EDGE('',*,*,#58,.T.);
#68=ORIENTED_EDGE('',*,*,#60,.F.);
#69=ORIENTED_EDGE('',*,*,#61,.F.);
#70=ORIENTED_EDGE('',*,*,#61,.T.);
#71=ORIENTED_EDGE('',*,*,#60,.T.);
#72=ORIENTED_EDGE('',*,*,#62,.F.);
#73=ORIENTED_EDGE('',*,*,#63,.F.);
#74=ORIENTED_EDGE('',*,*,#63,.T.);
#75=ORIENTED_EDGE('',*,*,#62,.T.);
#76=CYLINDRICAL_SURFACE('',#98,1.35);
#77=CYLINDRICAL_SURFACE('',#103,0.275);
#78=CYLINDRICAL_SURFACE('',#108,0.275);
#79=STYLED_ITEM('',(#189),#85);
#80=STYLED_ITEM('',(#189),#86);
#81=STYLED_ITEM('',(#189),#87);
#82=STYLED_ITEM('',(#188),#13);
#83=STYLED_ITEM('',(#188),#14);
#84=STYLED_ITEM('',(#188),#15);
#85=ADVANCED_FACE('',(#25,#22),#76,.T.);
#86=ADVANCED_FACE('',(#26),#16,.F.);
#87=ADVANCED_FACE('',(#27),#17,.T.);
#88=ADVANCED_FACE('',(#28,#23),#77,.T.);
#89=ADVANCED_FACE('',(#29),#18,.F.);
#90=ADVANCED_FACE('',(#30),#19,.T.);
#91=ADVANCED_FACE('',(#31,#24),#78,.T.);
#92=ADVANCED_FACE('',(#32),#20,.T.);
#93=ADVANCED_FACE('',(#33),#21,.F.);
#94=CLOSED_SHELL('',(#85,#86,#87));
#95=CLOSED_SHELL('',(#88,#89,#90));
#96=CLOSED_SHELL('',(#91,#92,#93));
#97=AXIS2_PLACEMENT_3D('placement',#145,#113,#114);
#98=AXIS2_PLACEMENT_3D('',#146,#115,#116);
#99=AXIS2_PLACEMENT_3D('',#148,#117,#118);
#100=AXIS2_PLACEMENT_3D('',#150,#119,#120);
#101=AXIS2_PLACEMENT_3D('',#151,#121,#122);
#102=AXIS2_PLACEMENT_3D('',#152,#123,#124);
#103=AXIS2_PLACEMENT_3D('',#153,#125,#126);
#104=AXIS2_PLACEMENT_3D('',#155,#127,#128);
#105=AXIS2_PLACEMENT_3D('',#157,#129,#130);
#106=AXIS2_PLACEMENT_3D('',#158,#131,#132);
#107=AXIS2_PLACEMENT_3D('',#159,#133,#134);
#108=AXIS2_PLACEMENT_3D('',#160,#135,#136);
#109=AXIS2_PLACEMENT_3D('',#162,#137,#138);
#110=AXIS2_PLACEMENT_3D('',#164,#139,#140);
#111=AXIS2_PLACEMENT_3D('',#165,#141,#142);
#112=AXIS2_PLACEMENT_3D('',#166,#143,#144);
#113=DIRECTION('axis',(0.,0.,1.));
#114=DIRECTION('refdir',(1.,0.,0.));
#115=DIRECTION('center_axis',(1.,0.,0.));
#116=DIRECTION('ref_axis',(0.,-1.,0.));
#117=DIRECTION('center_axis',(1.,0.,0.));
#118=DIRECTION('ref_axis',(0.,-1.,0.));
#119=DIRECTION('center_axis',(-1.,0.,0.));
#120=DIRECTION('ref_axis',(0.,-1.,0.));
#121=DIRECTION('center_axis',(1.,0.,0.));
#122=DIRECTION('ref_axis',(0.,0.,-1.));
#123=DIRECTION('center_axis',(1.,0.,0.));
#124=DIRECTION('ref_axis',(0.,0.,-1.));
#125=DIRECTION('center_axis',(1.,0.,0.));
#126=DIRECTION('ref_axis',(0.,0.,1.));
#127=DIRECTION('center_axis',(1.,0.,0.));
#128=DIRECTION('ref_axis',(0.,0.,1.));
#129=DIRECTION('center_axis',(-1.,0.,0.));
#130=DIRECTION('ref_axis',(0.,0.,1.));
#131=DIRECTION('center_axis',(1.,0.,0.));
#132=DIRECTION('ref_axis',(0.,0.,-1.));
#133=DIRECTION('center_axis',(1.,0.,0.));
#134=DIRECTION('ref_axis',(0.,0.,-1.));
#135=DIRECTION('center_axis',(-1.,0.,0.));
#136=DIRECTION('ref_axis',(0.,0.,-1.));
#137=DIRECTION('center_axis',(-1.,0.,0.));
#138=DIRECTION('ref_axis',(0.,0.,-1.));
#139=DIRECTION('center_axis',(1.,0.,0.));
#140=DIRECTION('ref_axis',(0.,0.,-1.));
#141=DIRECTION('center_axis',(1.,0.,0.));
#142=DIRECTION('ref_axis',(0.,0.,-1.));
#143=DIRECTION('center_axis',(1.,0.,0.));
#144=DIRECTION('ref_axis',(0.,0.,-1.));
#145=CARTESIAN_POINT('',(0.,0.,0.));
#146=CARTESIAN_POINT('Origin',(0.,0.,0.));
#147=CARTESIAN_POINT('',(8.5,1.35,1.65327317884893E-16));
#148=CARTESIAN_POINT('Origin',(8.5,0.,0.));
#149=CARTESIAN_POINT('',(0.,1.35,1.65327317884893E-16));
#150=CARTESIAN_POINT('Origin',(0.,0.,0.));
#151=CARTESIAN_POINT('Origin',(0.,-5.66099549095882E-17,2.14163392095902E-17));
#152=CARTESIAN_POINT('Origin',(8.5,-5.66099549095882E-17,2.14163392095902E-17));
#153=CARTESIAN_POINT('Origin',(8.5,0.,0.));
#154=CARTESIAN_POINT('',(36.5,3.36777869765522E-17,-0.275));
#155=CARTESIAN_POINT('Origin',(36.5,0.,0.));
#156=CARTESIAN_POINT('',(8.5,3.36777869765522E-17,-0.275));
#157=CARTESIAN_POINT('Origin',(8.5,0.,0.));
#158=CARTESIAN_POINT('Origin',(8.5,-6.5709222574879E-18,1.59483267630218E-17));
#159=CARTESIAN_POINT('Origin',(36.5,-6.5709222574879E-18,1.59483267630218E-17));
#160=CARTESIAN_POINT('Origin',(0.,0.,0.));
#161=CARTESIAN_POINT('',(-28.,3.36777869765522E-17,0.275));
#162=CARTESIAN_POINT('Origin',(-28.,0.,0.));
#163=CARTESIAN_POINT('',(0.,3.36777869765522E-17,0.275));
#164=CARTESIAN_POINT('Origin',(0.,0.,0.));
#165=CARTESIAN_POINT('Origin',(0.,0.,-2.80648224804602E-18));
#166=CARTESIAN_POINT('Origin',(-28.,0.,-2.80648224804602E-18));
#167=UNCERTAINTY_MEASURE_WITH_UNIT(LENGTH_MEASURE(0.01),#171,
'DISTANCE_ACCURACY_VALUE',
'Maximum model space distance between geometric entities at asserted c
onnectivities');
#168=UNCERTAINTY_MEASURE_WITH_UNIT(LENGTH_MEASURE(1.E-6),#171,
'DISTANCE_ACCURACY_VALUE',
'Maximum model space distance between geometric entities at asserted c
onnectivities');
#169=(
GEOMETRIC_REPRESENTATION_CONTEXT(3)
GLOBAL_UNCERTAINTY_ASSIGNED_CONTEXT((#167))
GLOBAL_UNIT_ASSIGNED_CONTEXT((#171,#174,#172))
REPRESENTATION_CONTEXT('','3D')
);
#170=(
GEOMETRIC_REPRESENTATION_CONTEXT(3)
GLOBAL_UNCERTAINTY_ASSIGNED_CONTEXT((#168))
GLOBAL_UNIT_ASSIGNED_CONTEXT((#171,#174,#172))
REPRESENTATION_CONTEXT('','3D')
);
#171=(
LENGTH_UNIT()
NAMED_UNIT(*)
SI_UNIT(.MILLI.,.METRE.)
);
#172=(
NAMED_UNIT(*)
SI_UNIT($,.STERADIAN.)
SOLID_ANGLE_UNIT()
);
#173=DIMENSIONAL_EXPONENTS(0.,0.,0.,0.,0.,0.,0.);
#174=(
CONVERSION_BASED_UNIT('degree',#176)
NAMED_UNIT(#173)
PLANE_ANGLE_UNIT()
);
#175=(
NAMED_UNIT(*)
PLANE_ANGLE_UNIT()
SI_UNIT($,.RADIAN.)
);
#176=PLANE_ANGLE_MEASURE_WITH_UNIT(PLANE_ANGLE_MEASURE(0.01745329252),#175);
#177=SHAPE_DEFINITION_REPRESENTATION(#178,#179);
#178=PRODUCT_DEFINITION_SHAPE('',$,#181);
#179=SHAPE_REPRESENTATION('',(#97),#169);
#180=PRODUCT_DEFINITION_CONTEXT('part definition',#185,'design');
#181=PRODUCT_DEFINITION('CF12','CF12',#182,#180);
#182=PRODUCT_DEFINITION_FORMATION('',$,#187);
#183=PRODUCT_RELATED_PRODUCT_CATEGORY('CF12','CF12',(#187));
#184=APPLICATION_PROTOCOL_DEFINITION('international standard',
'automotive_design',2009,#185);
#185=APPLICATION_CONTEXT(
'Core Data for Automotive Mechanical Design Process');
#186=PRODUCT_CONTEXT('part definition',#185,'mechanical');
#187=PRODUCT('CF12','CF12',$,(#186));
#188=PRESENTATION_STYLE_ASSIGNMENT((#190));
#189=PRESENTATION_STYLE_ASSIGNMENT((#191));
#190=SURFACE_STYLE_USAGE(.BOTH.,#192);
#191=SURFACE_STYLE_USAGE(.BOTH.,#193);
#192=SURFACE_SIDE_STYLE('',(#194));
#193=SURFACE_SIDE_STYLE('',(#195));
#194=SURFACE_STYLE_FILL_AREA(#196);
#195=SURFACE_STYLE_FILL_AREA(#197);
#196=FILL_AREA_STYLE('',(#198));
#197=FILL_AREA_STYLE('',(#199));
#198=FILL_AREA_STYLE_COLOUR('',#200);
#199=FILL_AREA_STYLE_COLOUR('',#201);
#200=COLOUR_RGB('',0.749019607843137,0.749019607843137,0.749019607843137);
#201=COLOUR_RGB('',0.270588235294118,0.270588235294118,0.270588235294118);
ENDSEC;
END-ISO-10303-21;
