ISO-10303-21;
HEADER;
/* Generated by software containing ST-Developer
 * from STEP Tools, Inc. (www.steptools.com) 
 */

FILE_DESCRIPTION(
/* description */ (''),
/* implementation_level */ '2;1');

FILE_NAME(
/* name */ 
'C:\\Users\\mulla\\Documents\\SEI Models\\Inventor Files\\CSS\\CSS0603
_stp.stp',
/* time_stamp */ '2019-07-08T15:42:11-04:00',
/* author */ ('mulla'),
/* organization */ (''),
/* preprocessor_version */ 'ST-DEVELOPER v16.1',
/* originating_system */ 'Autodesk Inventor 2016',
/* authorisation */ '');

FILE_SCHEMA (('AUTOMOTIVE_DESIGN { 1 0 10303 214 3 1 1 }'));
ENDSEC;

DATA;
#10=MECHANICAL_DESIGN_GEOMETRIC_PRESENTATION_REPRESENTATION('',(#360,#361,
#362,#363,#355,#357,#358,#359,#354,#356,#367,#368,#365,#372,#373,#364,#366,
#371,#374,#370,#369,#378,#377,#376,#375),#627);
#11=SHAPE_REPRESENTATION_RELATIONSHIP('SRR','None',#636,#12);
#12=ADVANCED_BREP_SHAPE_REPRESENTATION('',(#13,#14,#15),#626);
#13=MANIFOLD_SOLID_BREP('Solid1',#401);
#14=MANIFOLD_SOLID_BREP('Solid2',#402);
#15=MANIFOLD_SOLID_BREP('Solid2',#403);
#16=FACE_OUTER_BOUND('',#38,.T.);
#17=FACE_OUTER_BOUND('',#39,.T.);
#18=FACE_OUTER_BOUND('',#40,.T.);
#19=FACE_OUTER_BOUND('',#41,.T.);
#20=FACE_OUTER_BOUND('',#42,.T.);
#21=FACE_OUTER_BOUND('',#43,.T.);
#22=FACE_OUTER_BOUND('',#44,.T.);
#23=FACE_OUTER_BOUND('',#45,.T.);
#24=FACE_OUTER_BOUND('',#46,.T.);
#25=FACE_OUTER_BOUND('',#47,.T.);
#26=FACE_OUTER_BOUND('',#48,.T.);
#27=FACE_OUTER_BOUND('',#49,.T.);
#28=FACE_OUTER_BOUND('',#50,.T.);
#29=FACE_OUTER_BOUND('',#51,.T.);
#30=FACE_OUTER_BOUND('',#52,.T.);
#31=FACE_OUTER_BOUND('',#53,.T.);
#32=FACE_OUTER_BOUND('',#54,.T.);
#33=FACE_OUTER_BOUND('',#55,.T.);
#34=FACE_OUTER_BOUND('',#56,.T.);
#35=FACE_OUTER_BOUND('',#57,.T.);
#36=FACE_OUTER_BOUND('',#58,.T.);
#37=FACE_OUTER_BOUND('',#59,.T.);
#38=EDGE_LOOP('',(#236,#237,#238,#239));
#39=EDGE_LOOP('',(#240,#241,#242,#243));
#40=EDGE_LOOP('',(#244,#245,#246,#247));
#41=EDGE_LOOP('',(#248,#249,#250,#251));
#42=EDGE_LOOP('',(#252,#253,#254,#255));
#43=EDGE_LOOP('',(#256,#257,#258,#259));
#44=EDGE_LOOP('',(#260,#261,#262,#263));
#45=EDGE_LOOP('',(#264,#265,#266,#267));
#46=EDGE_LOOP('',(#268,#269,#270,#271));
#47=EDGE_LOOP('',(#272,#273,#274,#275,#276,#277));
#48=EDGE_LOOP('',(#278,#279,#280,#281));
#49=EDGE_LOOP('',(#282,#283,#284,#285));
#50=EDGE_LOOP('',(#286,#287,#288,#289));
#51=EDGE_LOOP('',(#290,#291,#292,#293,#294,#295));
#52=EDGE_LOOP('',(#296,#297,#298,#299));
#53=EDGE_LOOP('',(#300,#301,#302,#303));
#54=EDGE_LOOP('',(#304,#305,#306,#307));
#55=EDGE_LOOP('',(#308,#309,#310,#311,#312,#313));
#56=EDGE_LOOP('',(#314,#315,#316,#317));
#57=EDGE_LOOP('',(#318,#319,#320,#321));
#58=EDGE_LOOP('',(#322,#323,#324,#325));
#59=EDGE_LOOP('',(#326,#327,#328,#329,#330,#331));
#60=LINE('',#525,#108);
#61=LINE('',#527,#109);
#62=LINE('',#529,#110);
#63=LINE('',#530,#111);
#64=LINE('',#533,#112);
#65=LINE('',#535,#113);
#66=LINE('',#536,#114);
#67=LINE('',#539,#115);
#68=LINE('',#541,#116);
#69=LINE('',#542,#117);
#70=LINE('',#544,#118);
#71=LINE('',#545,#119);
#72=LINE('',#551,#120);
#73=LINE('',#553,#121);
#74=LINE('',#555,#122);
#75=LINE('',#556,#123);
#76=LINE('',#560,#124);
#77=LINE('',#562,#125);
#78=LINE('',#564,#126);
#79=LINE('',#565,#127);
#80=LINE('',#567,#128);
#81=LINE('',#568,#129);
#82=LINE('',#571,#130);
#83=LINE('',#573,#131);
#84=LINE('',#574,#132);
#85=LINE('',#577,#133);
#86=LINE('',#579,#134);
#87=LINE('',#580,#135);
#88=LINE('',#582,#136);
#89=LINE('',#584,#137);
#90=LINE('',#589,#138);
#91=LINE('',#591,#139);
#92=LINE('',#593,#140);
#93=LINE('',#594,#141);
#94=LINE('',#597,#142);
#95=LINE('',#599,#143);
#96=LINE('',#600,#144);
#97=LINE('',#603,#145);
#98=LINE('',#605,#146);
#99=LINE('',#606,#147);
#100=LINE('',#609,#148);
#101=LINE('',#611,#149);
#102=LINE('',#612,#150);
#103=LINE('',#615,#151);
#104=LINE('',#616,#152);
#105=LINE('',#619,#153);
#106=LINE('',#620,#154);
#107=LINE('',#622,#155);
#108=VECTOR('',#431,0.772);
#109=VECTOR('',#432,0.236);
#110=VECTOR('',#433,0.772);
#111=VECTOR('',#434,0.236);
#112=VECTOR('',#437,1.572);
#113=VECTOR('',#438,1.572);
#114=VECTOR('',#439,0.236);
#115=VECTOR('',#442,0.772);
#116=VECTOR('',#443,0.772);
#117=VECTOR('',#444,0.236);
#118=VECTOR('',#447,1.572);
#119=VECTOR('',#448,1.572);
#120=VECTOR('',#455,0.8);
#121=VECTOR('',#456,0.286);
#122=VECTOR('',#457,0.8);
#123=VECTOR('',#458,0.286);
#124=VECTOR('',#461,0.8);
#125=VECTOR('',#462,0.3);
#126=VECTOR('',#463,0.8);
#127=VECTOR('',#464,0.3);
#128=VECTOR('',#467,0.014);
#129=VECTOR('',#468,0.014);
#130=VECTOR('',#471,0.236);
#131=VECTOR('',#472,0.0140000000000001);
#132=VECTOR('',#473,0.25);
#133=VECTOR('',#476,0.8);
#134=VECTOR('',#477,0.0140000000000001);
#135=VECTOR('',#478,0.8);
#136=VECTOR('',#481,0.25);
#137=VECTOR('',#484,0.236);
#138=VECTOR('',#489,0.8);
#139=VECTOR('',#490,0.286);
#140=VECTOR('',#491,0.8);
#141=VECTOR('',#492,0.286);
#142=VECTOR('',#495,0.014);
#143=VECTOR('',#496,0.8);
#144=VECTOR('',#497,0.014);
#145=VECTOR('',#500,0.3);
#146=VECTOR('',#501,0.8);
#147=VECTOR('',#502,0.3);
#148=VECTOR('',#505,0.236);
#149=VECTOR('',#506,0.25);
#150=VECTOR('',#507,0.014);
#151=VECTOR('',#510,0.25);
#152=VECTOR('',#511,0.8);
#153=VECTOR('',#514,0.014);
#154=VECTOR('',#515,0.8);
#155=VECTOR('',#518,0.236);
#156=VERTEX_POINT('',#523);
#157=VERTEX_POINT('',#524);
#158=VERTEX_POINT('',#526);
#159=VERTEX_POINT('',#528);
#160=VERTEX_POINT('',#532);
#161=VERTEX_POINT('',#534);
#162=VERTEX_POINT('',#538);
#163=VERTEX_POINT('',#540);
#164=VERTEX_POINT('',#549);
#165=VERTEX_POINT('',#550);
#166=VERTEX_POINT('',#552);
#167=VERTEX_POINT('',#554);
#168=VERTEX_POINT('',#558);
#169=VERTEX_POINT('',#559);
#170=VERTEX_POINT('',#561);
#171=VERTEX_POINT('',#563);
#172=VERTEX_POINT('',#570);
#173=VERTEX_POINT('',#572);
#174=VERTEX_POINT('',#576);
#175=VERTEX_POINT('',#578);
#176=VERTEX_POINT('',#587);
#177=VERTEX_POINT('',#588);
#178=VERTEX_POINT('',#590);
#179=VERTEX_POINT('',#592);
#180=VERTEX_POINT('',#596);
#181=VERTEX_POINT('',#598);
#182=VERTEX_POINT('',#602);
#183=VERTEX_POINT('',#604);
#184=VERTEX_POINT('',#608);
#185=VERTEX_POINT('',#610);
#186=VERTEX_POINT('',#614);
#187=VERTEX_POINT('',#618);
#188=EDGE_CURVE('',#156,#157,#60,.T.);
#189=EDGE_CURVE('',#156,#158,#61,.T.);
#190=EDGE_CURVE('',#159,#158,#62,.T.);
#191=EDGE_CURVE('',#157,#159,#63,.T.);
#192=EDGE_CURVE('',#157,#160,#64,.T.);
#193=EDGE_CURVE('',#161,#159,#65,.T.);
#194=EDGE_CURVE('',#160,#161,#66,.T.);
#195=EDGE_CURVE('',#160,#162,#67,.T.);
#196=EDGE_CURVE('',#163,#161,#68,.T.);
#197=EDGE_CURVE('',#162,#163,#69,.T.);
#198=EDGE_CURVE('',#162,#156,#70,.T.);
#199=EDGE_CURVE('',#158,#163,#71,.T.);
#200=EDGE_CURVE('',#164,#165,#72,.T.);
#201=EDGE_CURVE('',#166,#164,#73,.T.);
#202=EDGE_CURVE('',#166,#167,#74,.T.);
#203=EDGE_CURVE('',#165,#167,#75,.T.);
#204=EDGE_CURVE('',#168,#169,#76,.T.);
#205=EDGE_CURVE('',#170,#169,#77,.T.);
#206=EDGE_CURVE('',#171,#170,#78,.T.);
#207=EDGE_CURVE('',#168,#171,#79,.T.);
#208=EDGE_CURVE('',#167,#170,#80,.T.);
#209=EDGE_CURVE('',#171,#166,#81,.T.);
#210=EDGE_CURVE('',#164,#172,#82,.T.);
#211=EDGE_CURVE('',#172,#173,#83,.T.);
#212=EDGE_CURVE('',#173,#168,#84,.T.);
#213=EDGE_CURVE('',#174,#172,#85,.T.);
#214=EDGE_CURVE('',#175,#174,#86,.T.);
#215=EDGE_CURVE('',#173,#175,#87,.T.);
#216=EDGE_CURVE('',#169,#175,#88,.T.);
#217=EDGE_CURVE('',#174,#165,#89,.T.);
#218=EDGE_CURVE('',#176,#177,#90,.T.);
#219=EDGE_CURVE('',#178,#176,#91,.T.);
#220=EDGE_CURVE('',#179,#178,#92,.T.);
#221=EDGE_CURVE('',#177,#179,#93,.T.);
#222=EDGE_CURVE('',#180,#178,#94,.T.);
#223=EDGE_CURVE('',#181,#180,#95,.T.);
#224=EDGE_CURVE('',#179,#181,#96,.T.);
#225=EDGE_CURVE('',#182,#180,#97,.T.);
#226=EDGE_CURVE('',#183,#182,#98,.T.);
#227=EDGE_CURVE('',#181,#183,#99,.T.);
#228=EDGE_CURVE('',#184,#177,#100,.T.);
#229=EDGE_CURVE('',#183,#185,#101,.T.);
#230=EDGE_CURVE('',#185,#184,#102,.T.);
#231=EDGE_CURVE('',#186,#182,#103,.T.);
#232=EDGE_CURVE('',#185,#186,#104,.T.);
#233=EDGE_CURVE('',#187,#186,#105,.T.);
#234=EDGE_CURVE('',#184,#187,#106,.T.);
#235=EDGE_CURVE('',#176,#187,#107,.T.);
#236=ORIENTED_EDGE('',*,*,#188,.F.);
#237=ORIENTED_EDGE('',*,*,#189,.T.);
#238=ORIENTED_EDGE('',*,*,#190,.F.);
#239=ORIENTED_EDGE('',*,*,#191,.F.);
#240=ORIENTED_EDGE('',*,*,#192,.F.);
#241=ORIENTED_EDGE('',*,*,#191,.T.);
#242=ORIENTED_EDGE('',*,*,#193,.F.);
#243=ORIENTED_EDGE('',*,*,#194,.F.);
#244=ORIENTED_EDGE('',*,*,#195,.F.);
#245=ORIENTED_EDGE('',*,*,#194,.T.);
#246=ORIENTED_EDGE('',*,*,#196,.F.);
#247=ORIENTED_EDGE('',*,*,#197,.F.);
#248=ORIENTED_EDGE('',*,*,#198,.F.);
#249=ORIENTED_EDGE('',*,*,#197,.T.);
#250=ORIENTED_EDGE('',*,*,#199,.F.);
#251=ORIENTED_EDGE('',*,*,#189,.F.);
#252=ORIENTED_EDGE('',*,*,#198,.T.);
#253=ORIENTED_EDGE('',*,*,#188,.T.);
#254=ORIENTED_EDGE('',*,*,#192,.T.);
#255=ORIENTED_EDGE('',*,*,#195,.T.);
#256=ORIENTED_EDGE('',*,*,#199,.T.);
#257=ORIENTED_EDGE('',*,*,#196,.T.);
#258=ORIENTED_EDGE('',*,*,#193,.T.);
#259=ORIENTED_EDGE('',*,*,#190,.T.);
#260=ORIENTED_EDGE('',*,*,#200,.F.);
#261=ORIENTED_EDGE('',*,*,#201,.F.);
#262=ORIENTED_EDGE('',*,*,#202,.T.);
#263=ORIENTED_EDGE('',*,*,#203,.F.);
#264=ORIENTED_EDGE('',*,*,#204,.T.);
#265=ORIENTED_EDGE('',*,*,#205,.F.);
#266=ORIENTED_EDGE('',*,*,#206,.F.);
#267=ORIENTED_EDGE('',*,*,#207,.F.);
#268=ORIENTED_EDGE('',*,*,#206,.T.);
#269=ORIENTED_EDGE('',*,*,#208,.F.);
#270=ORIENTED_EDGE('',*,*,#202,.F.);
#271=ORIENTED_EDGE('',*,*,#209,.F.);
#272=ORIENTED_EDGE('',*,*,#210,.T.);
#273=ORIENTED_EDGE('',*,*,#211,.T.);
#274=ORIENTED_EDGE('',*,*,#212,.T.);
#275=ORIENTED_EDGE('',*,*,#207,.T.);
#276=ORIENTED_EDGE('',*,*,#209,.T.);
#277=ORIENTED_EDGE('',*,*,#201,.T.);
#278=ORIENTED_EDGE('',*,*,#213,.F.);
#279=ORIENTED_EDGE('',*,*,#214,.F.);
#280=ORIENTED_EDGE('',*,*,#215,.F.);
#281=ORIENTED_EDGE('',*,*,#211,.F.);
#282=ORIENTED_EDGE('',*,*,#215,.T.);
#283=ORIENTED_EDGE('',*,*,#216,.F.);
#284=ORIENTED_EDGE('',*,*,#204,.F.);
#285=ORIENTED_EDGE('',*,*,#212,.F.);
#286=ORIENTED_EDGE('',*,*,#200,.T.);
#287=ORIENTED_EDGE('',*,*,#217,.F.);
#288=ORIENTED_EDGE('',*,*,#213,.T.);
#289=ORIENTED_EDGE('',*,*,#210,.F.);
#290=ORIENTED_EDGE('',*,*,#217,.T.);
#291=ORIENTED_EDGE('',*,*,#203,.T.);
#292=ORIENTED_EDGE('',*,*,#208,.T.);
#293=ORIENTED_EDGE('',*,*,#205,.T.);
#294=ORIENTED_EDGE('',*,*,#216,.T.);
#295=ORIENTED_EDGE('',*,*,#214,.T.);
#296=ORIENTED_EDGE('',*,*,#218,.F.);
#297=ORIENTED_EDGE('',*,*,#219,.F.);
#298=ORIENTED_EDGE('',*,*,#220,.F.);
#299=ORIENTED_EDGE('',*,*,#221,.F.);
#300=ORIENTED_EDGE('',*,*,#220,.T.);
#301=ORIENTED_EDGE('',*,*,#222,.F.);
#302=ORIENTED_EDGE('',*,*,#223,.F.);
#303=ORIENTED_EDGE('',*,*,#224,.F.);
#304=ORIENTED_EDGE('',*,*,#223,.T.);
#305=ORIENTED_EDGE('',*,*,#225,.F.);
#306=ORIENTED_EDGE('',*,*,#226,.F.);
#307=ORIENTED_EDGE('',*,*,#227,.F.);
#308=ORIENTED_EDGE('',*,*,#228,.T.);
#309=ORIENTED_EDGE('',*,*,#221,.T.);
#310=ORIENTED_EDGE('',*,*,#224,.T.);
#311=ORIENTED_EDGE('',*,*,#227,.T.);
#312=ORIENTED_EDGE('',*,*,#229,.T.);
#313=ORIENTED_EDGE('',*,*,#230,.T.);
#314=ORIENTED_EDGE('',*,*,#231,.F.);
#315=ORIENTED_EDGE('',*,*,#232,.F.);
#316=ORIENTED_EDGE('',*,*,#229,.F.);
#317=ORIENTED_EDGE('',*,*,#226,.T.);
#318=ORIENTED_EDGE('',*,*,#232,.T.);
#319=ORIENTED_EDGE('',*,*,#233,.F.);
#320=ORIENTED_EDGE('',*,*,#234,.F.);
#321=ORIENTED_EDGE('',*,*,#230,.F.);
#322=ORIENTED_EDGE('',*,*,#234,.T.);
#323=ORIENTED_EDGE('',*,*,#235,.F.);
#324=ORIENTED_EDGE('',*,*,#218,.T.);
#325=ORIENTED_EDGE('',*,*,#228,.F.);
#326=ORIENTED_EDGE('',*,*,#235,.T.);
#327=ORIENTED_EDGE('',*,*,#233,.T.);
#328=ORIENTED_EDGE('',*,*,#231,.T.);
#329=ORIENTED_EDGE('',*,*,#225,.T.);
#330=ORIENTED_EDGE('',*,*,#222,.T.);
#331=ORIENTED_EDGE('',*,*,#219,.T.);
#332=PLANE('',#405);
#333=PLANE('',#406);
#334=PLANE('',#407);
#335=PLANE('',#408);
#336=PLANE('',#409);
#337=PLANE('',#410);
#338=PLANE('',#411);
#339=PLANE('',#412);
#340=PLANE('',#413);
#341=PLANE('',#414);
#342=PLANE('',#415);
#343=PLANE('',#416);
#344=PLANE('',#417);
#345=PLANE('',#418);
#346=PLANE('',#419);
#347=PLANE('',#420);
#348=PLANE('',#421);
#349=PLANE('',#422);
#350=PLANE('',#423);
#351=PLANE('',#424);
#352=PLANE('',#425);
#353=PLANE('',#426);
#354=STYLED_ITEM('',(#646),#379);
#355=STYLED_ITEM('',(#646),#380);
#356=STYLED_ITEM('',(#646),#381);
#357=STYLED_ITEM('',(#646),#382);
#358=STYLED_ITEM('',(#646),#383);
#359=STYLED_ITEM('',(#646),#384);
#360=STYLED_ITEM('',(#645),#13);
#361=STYLED_ITEM('',(#647),#385);
#362=STYLED_ITEM('',(#647),#386);
#363=STYLED_ITEM('',(#647),#387);
#364=STYLED_ITEM('',(#647),#388);
#365=STYLED_ITEM('',(#647),#389);
#366=STYLED_ITEM('',(#647),#390);
#367=STYLED_ITEM('',(#647),#391);
#368=STYLED_ITEM('',(#647),#392);
#369=STYLED_ITEM('',(#647),#393);
#370=STYLED_ITEM('',(#647),#394);
#371=STYLED_ITEM('',(#647),#395);
#372=STYLED_ITEM('',(#647),#396);
#373=STYLED_ITEM('',(#647),#397);
#374=STYLED_ITEM('',(#647),#398);
#375=STYLED_ITEM('',(#647),#399);
#376=STYLED_ITEM('',(#647),#400);
#377=STYLED_ITEM('',(#645),#14);
#378=STYLED_ITEM('',(#645),#15);
#379=ADVANCED_FACE('',(#16),#332,.T.);
#380=ADVANCED_FACE('',(#17),#333,.T.);
#381=ADVANCED_FACE('',(#18),#334,.T.);
#382=ADVANCED_FACE('',(#19),#335,.T.);
#383=ADVANCED_FACE('',(#20),#336,.F.);
#384=ADVANCED_FACE('',(#21),#337,.T.);
#385=ADVANCED_FACE('',(#22),#338,.T.);
#386=ADVANCED_FACE('',(#23),#339,.T.);
#387=ADVANCED_FACE('',(#24),#340,.T.);
#388=ADVANCED_FACE('',(#25),#341,.T.);
#389=ADVANCED_FACE('',(#26),#342,.T.);
#390=ADVANCED_FACE('',(#27),#343,.T.);
#391=ADVANCED_FACE('',(#28),#344,.T.);
#392=ADVANCED_FACE('',(#29),#345,.T.);
#393=ADVANCED_FACE('',(#30),#346,.T.);
#394=ADVANCED_FACE('',(#31),#347,.T.);
#395=ADVANCED_FACE('',(#32),#348,.T.);
#396=ADVANCED_FACE('',(#33),#349,.T.);
#397=ADVANCED_FACE('',(#34),#350,.T.);
#398=ADVANCED_FACE('',(#35),#351,.T.);
#399=ADVANCED_FACE('',(#36),#352,.T.);
#400=ADVANCED_FACE('',(#37),#353,.T.);
#401=CLOSED_SHELL('',(#379,#380,#381,#382,#383,#384));
#402=CLOSED_SHELL('',(#385,#386,#387,#388,#389,#390,#391,#392));
#403=CLOSED_SHELL('',(#393,#394,#395,#396,#397,#398,#399,#400));
#404=AXIS2_PLACEMENT_3D('placement',#521,#427,#428);
#405=AXIS2_PLACEMENT_3D('',#522,#429,#430);
#406=AXIS2_PLACEMENT_3D('',#531,#435,#436);
#407=AXIS2_PLACEMENT_3D('',#537,#440,#441);
#408=AXIS2_PLACEMENT_3D('',#543,#445,#446);
#409=AXIS2_PLACEMENT_3D('',#546,#449,#450);
#410=AXIS2_PLACEMENT_3D('',#547,#451,#452);
#411=AXIS2_PLACEMENT_3D('',#548,#453,#454);
#412=AXIS2_PLACEMENT_3D('',#557,#459,#460);
#413=AXIS2_PLACEMENT_3D('',#566,#465,#466);
#414=AXIS2_PLACEMENT_3D('',#569,#469,#470);
#415=AXIS2_PLACEMENT_3D('',#575,#474,#475);
#416=AXIS2_PLACEMENT_3D('',#581,#479,#480);
#417=AXIS2_PLACEMENT_3D('',#583,#482,#483);
#418=AXIS2_PLACEMENT_3D('',#585,#485,#486);
#419=AXIS2_PLACEMENT_3D('',#586,#487,#488);
#420=AXIS2_PLACEMENT_3D('',#595,#493,#494);
#421=AXIS2_PLACEMENT_3D('',#601,#498,#499);
#422=AXIS2_PLACEMENT_3D('',#607,#503,#504);
#423=AXIS2_PLACEMENT_3D('',#613,#508,#509);
#424=AXIS2_PLACEMENT_3D('',#617,#512,#513);
#425=AXIS2_PLACEMENT_3D('',#621,#516,#517);
#426=AXIS2_PLACEMENT_3D('',#623,#519,#520);
#427=DIRECTION('axis',(0.,0.,1.));
#428=DIRECTION('refdir',(1.,0.,0.));
#429=DIRECTION('center_axis',(1.,0.,0.));
#430=DIRECTION('ref_axis',(0.,0.,-1.));
#431=DIRECTION('',(0.,0.,1.));
#432=DIRECTION('',(0.,1.,0.));
#433=DIRECTION('',(0.,0.,-1.));
#434=DIRECTION('',(0.,1.,0.));
#435=DIRECTION('center_axis',(0.,0.,1.));
#436=DIRECTION('ref_axis',(1.,0.,0.));
#437=DIRECTION('',(-1.,0.,0.));
#438=DIRECTION('',(1.,0.,0.));
#439=DIRECTION('',(0.,1.,0.));
#440=DIRECTION('center_axis',(-1.,0.,0.));
#441=DIRECTION('ref_axis',(0.,0.,1.));
#442=DIRECTION('',(0.,0.,-1.));
#443=DIRECTION('',(0.,0.,1.));
#444=DIRECTION('',(0.,1.,0.));
#445=DIRECTION('center_axis',(0.,0.,-1.));
#446=DIRECTION('ref_axis',(-1.,0.,0.));
#447=DIRECTION('',(1.,0.,0.));
#448=DIRECTION('',(-1.,0.,0.));
#449=DIRECTION('center_axis',(0.,1.,0.));
#450=DIRECTION('ref_axis',(0.,0.,1.));
#451=DIRECTION('center_axis',(0.,1.,0.));
#452=DIRECTION('ref_axis',(0.,0.,1.));
#453=DIRECTION('center_axis',(0.,1.,0.));
#454=DIRECTION('ref_axis',(-1.,0.,0.));
#455=DIRECTION('',(0.,0.,1.));
#456=DIRECTION('',(1.,0.,0.));
#457=DIRECTION('',(0.,0.,1.));
#458=DIRECTION('',(-1.,0.,0.));
#459=DIRECTION('center_axis',(0.,-1.,0.));
#460=DIRECTION('ref_axis',(1.,0.,0.));
#461=DIRECTION('',(0.,0.,1.));
#462=DIRECTION('',(1.,0.,0.));
#463=DIRECTION('',(0.,0.,1.));
#464=DIRECTION('',(-1.,0.,0.));
#465=DIRECTION('center_axis',(-1.,0.,0.));
#466=DIRECTION('ref_axis',(0.,-1.,0.));
#467=DIRECTION('',(0.,-1.,0.));
#468=DIRECTION('',(0.,1.,0.));
#469=DIRECTION('center_axis',(0.,0.,-1.));
#470=DIRECTION('ref_axis',(-1.,0.,0.));
#471=DIRECTION('',(0.,1.,0.));
#472=DIRECTION('',(1.,0.,0.));
#473=DIRECTION('',(0.,-1.,0.));
#474=DIRECTION('center_axis',(0.,1.,0.));
#475=DIRECTION('ref_axis',(-1.,0.,0.));
#476=DIRECTION('',(0.,0.,-1.));
#477=DIRECTION('',(-1.,0.,0.));
#478=DIRECTION('',(0.,0.,1.));
#479=DIRECTION('center_axis',(1.,0.,0.));
#480=DIRECTION('ref_axis',(0.,1.,0.));
#481=DIRECTION('',(0.,1.,0.));
#482=DIRECTION('center_axis',(-1.,0.,0.));
#483=DIRECTION('ref_axis',(0.,-1.,0.));
#484=DIRECTION('',(0.,-1.,0.));
#485=DIRECTION('center_axis',(0.,0.,1.));
#486=DIRECTION('ref_axis',(1.,0.,0.));
#487=DIRECTION('center_axis',(0.,1.,0.));
#488=DIRECTION('ref_axis',(-1.,0.,0.));
#489=DIRECTION('',(0.,0.,-1.));
#490=DIRECTION('',(-1.,0.,0.));
#491=DIRECTION('',(0.,0.,1.));
#492=DIRECTION('',(1.,0.,0.));
#493=DIRECTION('center_axis',(1.,0.,0.));
#494=DIRECTION('ref_axis',(0.,1.,0.));
#495=DIRECTION('',(0.,1.,0.));
#496=DIRECTION('',(0.,0.,1.));
#497=DIRECTION('',(0.,-1.,0.));
#498=DIRECTION('center_axis',(0.,-1.,0.));
#499=DIRECTION('ref_axis',(1.,0.,0.));
#500=DIRECTION('',(1.,0.,0.));
#501=DIRECTION('',(0.,0.,1.));
#502=DIRECTION('',(-1.,0.,0.));
#503=DIRECTION('center_axis',(0.,0.,-1.));
#504=DIRECTION('ref_axis',(-1.,0.,0.));
#505=DIRECTION('',(0.,-1.,0.));
#506=DIRECTION('',(0.,1.,0.));
#507=DIRECTION('',(1.,2.47817639425258E-15,0.));
#508=DIRECTION('center_axis',(-1.,0.,0.));
#509=DIRECTION('ref_axis',(0.,-1.,0.));
#510=DIRECTION('',(0.,-1.,0.));
#511=DIRECTION('',(0.,0.,1.));
#512=DIRECTION('center_axis',(-2.47817639425258E-15,1.,0.));
#513=DIRECTION('ref_axis',(-1.,-2.47857290247566E-15,0.));
#514=DIRECTION('',(-1.,-2.47817639425258E-15,0.));
#515=DIRECTION('',(0.,0.,1.));
#516=DIRECTION('center_axis',(1.,0.,0.));
#517=DIRECTION('ref_axis',(0.,1.,0.));
#518=DIRECTION('',(0.,1.,0.));
#519=DIRECTION('center_axis',(0.,0.,1.));
#520=DIRECTION('ref_axis',(1.,0.,0.));
#521=CARTESIAN_POINT('',(0.,0.,0.));
#522=CARTESIAN_POINT('Origin',(1.572,0.,0.772));
#523=CARTESIAN_POINT('',(1.572,0.,0.));
#524=CARTESIAN_POINT('',(1.572,0.,0.772));
#525=CARTESIAN_POINT('',(1.572,0.,0.));
#526=CARTESIAN_POINT('',(1.572,0.236,0.));
#527=CARTESIAN_POINT('',(1.572,0.,0.));
#528=CARTESIAN_POINT('',(1.572,0.236,0.772));
#529=CARTESIAN_POINT('',(1.572,0.236,0.));
#530=CARTESIAN_POINT('',(1.572,0.,0.772));
#531=CARTESIAN_POINT('Origin',(0.,0.,0.772));
#532=CARTESIAN_POINT('',(0.,0.,0.772));
#533=CARTESIAN_POINT('',(1.572,0.,0.772));
#534=CARTESIAN_POINT('',(0.,0.236,0.772));
#535=CARTESIAN_POINT('',(1.572,0.236,0.772));
#536=CARTESIAN_POINT('',(0.,0.,0.772));
#537=CARTESIAN_POINT('Origin',(0.,0.,0.));
#538=CARTESIAN_POINT('',(0.,0.,0.));
#539=CARTESIAN_POINT('',(0.,0.,0.772));
#540=CARTESIAN_POINT('',(0.,0.236,0.));
#541=CARTESIAN_POINT('',(0.,0.236,0.772));
#542=CARTESIAN_POINT('',(0.,0.,0.));
#543=CARTESIAN_POINT('Origin',(1.572,0.,0.));
#544=CARTESIAN_POINT('',(0.,0.,0.));
#545=CARTESIAN_POINT('',(0.,0.236,0.));
#546=CARTESIAN_POINT('Origin',(0.786,0.,0.386));
#547=CARTESIAN_POINT('Origin',(0.786,0.236,0.386));
#548=CARTESIAN_POINT('Origin',(1.586,0.,0.772));
#549=CARTESIAN_POINT('',(1.572,0.,-0.014));
#550=CARTESIAN_POINT('',(1.572,0.,0.786));
#551=CARTESIAN_POINT('',(1.572,0.,0.772));
#552=CARTESIAN_POINT('',(1.286,0.,-0.014));
#553=CARTESIAN_POINT('',(1.586,0.,-0.014));
#554=CARTESIAN_POINT('',(1.286,0.,0.786));
#555=CARTESIAN_POINT('',(1.286,0.,0.772));
#556=CARTESIAN_POINT('',(1.586,0.,0.786));
#557=CARTESIAN_POINT('Origin',(1.286,-0.014,0.772));
#558=CARTESIAN_POINT('',(1.586,-0.014,-0.014));
#559=CARTESIAN_POINT('',(1.586,-0.014,0.786));
#560=CARTESIAN_POINT('',(1.586,-0.014,0.772));
#561=CARTESIAN_POINT('',(1.286,-0.014,0.786));
#562=CARTESIAN_POINT('',(1.286,-0.014,0.786));
#563=CARTESIAN_POINT('',(1.286,-0.014,-0.014));
#564=CARTESIAN_POINT('',(1.286,-0.014,0.772));
#565=CARTESIAN_POINT('',(1.286,-0.014,-0.014));
#566=CARTESIAN_POINT('Origin',(1.286,0.,0.772));
#567=CARTESIAN_POINT('',(1.286,0.,0.786));
#568=CARTESIAN_POINT('',(1.286,0.,-0.014));
#569=CARTESIAN_POINT('Origin',(1.579,0.118,-0.014));
#570=CARTESIAN_POINT('',(1.572,0.236,-0.014));
#571=CARTESIAN_POINT('',(1.572,0.236,-0.014));
#572=CARTESIAN_POINT('',(1.586,0.236,-0.014));
#573=CARTESIAN_POINT('',(1.586,0.236,-0.014));
#574=CARTESIAN_POINT('',(1.586,0.,-0.014));
#575=CARTESIAN_POINT('Origin',(1.586,0.236,0.772));
#576=CARTESIAN_POINT('',(1.572,0.236,0.786));
#577=CARTESIAN_POINT('',(1.572,0.236,0.772));
#578=CARTESIAN_POINT('',(1.586,0.236,0.786));
#579=CARTESIAN_POINT('',(1.586,0.236,0.786));
#580=CARTESIAN_POINT('',(1.586,0.236,0.772));
#581=CARTESIAN_POINT('Origin',(1.586,0.,0.772));
#582=CARTESIAN_POINT('',(1.586,-0.014,0.786));
#583=CARTESIAN_POINT('Origin',(1.572,0.236,0.772));
#584=CARTESIAN_POINT('',(1.572,0.236,0.786));
#585=CARTESIAN_POINT('Origin',(1.579,0.118,0.786));
#586=CARTESIAN_POINT('Origin',(0.286,0.,0.772));
#587=CARTESIAN_POINT('',(0.,0.,0.786));
#588=CARTESIAN_POINT('',(0.,0.,-0.014));
#589=CARTESIAN_POINT('',(0.,0.,0.772));
#590=CARTESIAN_POINT('',(0.286,0.,0.786));
#591=CARTESIAN_POINT('',(0.286,0.,0.786));
#592=CARTESIAN_POINT('',(0.286,0.,-0.014));
#593=CARTESIAN_POINT('',(0.286,0.,0.772));
#594=CARTESIAN_POINT('',(0.286,0.,-0.014));
#595=CARTESIAN_POINT('Origin',(0.286,-0.014,0.772));
#596=CARTESIAN_POINT('',(0.286,-0.014,0.786));
#597=CARTESIAN_POINT('',(0.286,-0.014,0.786));
#598=CARTESIAN_POINT('',(0.286,-0.014,-0.014));
#599=CARTESIAN_POINT('',(0.286,-0.014,0.772));
#600=CARTESIAN_POINT('',(0.286,-0.014,-0.014));
#601=CARTESIAN_POINT('Origin',(-0.014,-0.014,0.772));
#602=CARTESIAN_POINT('',(-0.014,-0.014,0.786));
#603=CARTESIAN_POINT('',(-0.014,-0.014,0.786));
#604=CARTESIAN_POINT('',(-0.014,-0.014,-0.014));
#605=CARTESIAN_POINT('',(-0.014,-0.014,0.772));
#606=CARTESIAN_POINT('',(-0.014,-0.014,-0.014));
#607=CARTESIAN_POINT('Origin',(-0.007,0.118,-0.014));
#608=CARTESIAN_POINT('',(0.,0.236,-0.014));
#609=CARTESIAN_POINT('',(0.,0.,-0.014));
#610=CARTESIAN_POINT('',(-0.014,0.236,-0.014));
#611=CARTESIAN_POINT('',(-0.014,0.,-0.014));
#612=CARTESIAN_POINT('',(0.,0.236,-0.014));
#613=CARTESIAN_POINT('Origin',(-0.014,0.236,0.772));
#614=CARTESIAN_POINT('',(-0.014,0.236,0.786));
#615=CARTESIAN_POINT('',(-0.014,0.236,0.786));
#616=CARTESIAN_POINT('',(-0.014,0.236,0.772));
#617=CARTESIAN_POINT('Origin',(0.,0.236,0.772));
#618=CARTESIAN_POINT('',(0.,0.236,0.786));
#619=CARTESIAN_POINT('',(0.,0.236,0.786));
#620=CARTESIAN_POINT('',(0.,0.236,0.772));
#621=CARTESIAN_POINT('Origin',(0.,0.,0.772));
#622=CARTESIAN_POINT('',(0.,0.,0.786));
#623=CARTESIAN_POINT('Origin',(-0.007,0.118,0.786));
#624=UNCERTAINTY_MEASURE_WITH_UNIT(LENGTH_MEASURE(0.01),#628,
'DISTANCE_ACCURACY_VALUE',
'Maximum model space distance between geometric entities at asserted c
onnectivities');
#625=UNCERTAINTY_MEASURE_WITH_UNIT(LENGTH_MEASURE(1.E-6),#628,
'DISTANCE_ACCURACY_VALUE',
'Maximum model space distance between geometric entities at asserted c
onnectivities');
#626=(
GEOMETRIC_REPRESENTATION_CONTEXT(3)
GLOBAL_UNCERTAINTY_ASSIGNED_CONTEXT((#624))
GLOBAL_UNIT_ASSIGNED_CONTEXT((#628,#631,#629))
REPRESENTATION_CONTEXT('','3D')
);
#627=(
GEOMETRIC_REPRESENTATION_CONTEXT(3)
GLOBAL_UNCERTAINTY_ASSIGNED_CONTEXT((#625))
GLOBAL_UNIT_ASSIGNED_CONTEXT((#628,#631,#629))
REPRESENTATION_CONTEXT('','3D')
);
#628=(
LENGTH_UNIT()
NAMED_UNIT(*)
SI_UNIT(.MILLI.,.METRE.)
);
#629=(
NAMED_UNIT(*)
SI_UNIT($,.STERADIAN.)
SOLID_ANGLE_UNIT()
);
#630=DIMENSIONAL_EXPONENTS(0.,0.,0.,0.,0.,0.,0.);
#631=(
CONVERSION_BASED_UNIT('degree',#633)
NAMED_UNIT(#630)
PLANE_ANGLE_UNIT()
);
#632=(
NAMED_UNIT(*)
PLANE_ANGLE_UNIT()
SI_UNIT($,.RADIAN.)
);
#633=PLANE_ANGLE_MEASURE_WITH_UNIT(PLANE_ANGLE_MEASURE(0.01745329252),#632);
#634=SHAPE_DEFINITION_REPRESENTATION(#635,#636);
#635=PRODUCT_DEFINITION_SHAPE('',$,#638);
#636=SHAPE_REPRESENTATION('',(#404),#626);
#637=PRODUCT_DEFINITION_CONTEXT('part definition',#642,'design');
#638=PRODUCT_DEFINITION('CSS0603','CSS0603',#639,#637);
#639=PRODUCT_DEFINITION_FORMATION('',$,#644);
#640=PRODUCT_RELATED_PRODUCT_CATEGORY('CSS0603','CSS0603',(#644));
#641=APPLICATION_PROTOCOL_DEFINITION('international standard',
'automotive_design',2009,#642);
#642=APPLICATION_CONTEXT(
'Core Data for Automotive Mechanical Design Process');
#643=PRODUCT_CONTEXT('part definition',#642,'mechanical');
#644=PRODUCT('CSS0603','CSS0603',$,(#643));
#645=PRESENTATION_STYLE_ASSIGNMENT((#648));
#646=PRESENTATION_STYLE_ASSIGNMENT((#649));
#647=PRESENTATION_STYLE_ASSIGNMENT((#650));
#648=SURFACE_STYLE_USAGE(.BOTH.,#651);
#649=SURFACE_STYLE_USAGE(.BOTH.,#652);
#650=SURFACE_STYLE_USAGE(.BOTH.,#653);
#651=SURFACE_SIDE_STYLE('',(#654));
#652=SURFACE_SIDE_STYLE('',(#655));
#653=SURFACE_SIDE_STYLE('',(#656));
#654=SURFACE_STYLE_FILL_AREA(#657);
#655=SURFACE_STYLE_FILL_AREA(#658);
#656=SURFACE_STYLE_FILL_AREA(#659);
#657=FILL_AREA_STYLE('',(#660));
#658=FILL_AREA_STYLE('',(#661));
#659=FILL_AREA_STYLE('',(#662));
#660=FILL_AREA_STYLE_COLOUR('',#663);
#661=FILL_AREA_STYLE_COLOUR('',#664);
#662=FILL_AREA_STYLE_COLOUR('',#665);
#663=COLOUR_RGB('',0.749019607843137,0.749019607843137,0.749019607843137);
#664=COLOUR_RGB('',0.270588235294118,0.270588235294118,0.270588235294118);
#665=COLOUR_RGB('',0.6,0.6,0.6);
ENDSEC;
END-ISO-10303-21;
