ISO-10303-21;
HEADER;
/* Generated by software containing ST-Developer
 * from STEP Tools, Inc. (www.steptools.com) 
 */

FILE_DESCRIPTION(
/* description */ (''),
/* implementation_level */ '2;1');

FILE_NAME(
/* name */ 
'C:\\Users\\mulla\\Documents\\SEI Models\\Inventor Files\\EWT\\EWT225_
stp.stp',
/* time_stamp */ '2019-06-30T13:39:54-04:00',
/* author */ ('mulla'),
/* organization */ (''),
/* preprocessor_version */ 'ST-DEVELOPER v16.1',
/* originating_system */ 'Autodesk Inventor 2016',
/* authorisation */ '');

FILE_SCHEMA (('AUTOMOTIVE_DESIGN { 1 0 10303 214 3 1 1 }'));
ENDSEC;

DATA;
#10=MECHANICAL_DESIGN_GEOMETRIC_PRESENTATION_REPRESENTATION('',(#13),#673);
#11=SHAPE_REPRESENTATION_RELATIONSHIP('SRR','None',#682,#12);
#12=ADVANCED_BREP_SHAPE_REPRESENTATION('',(#14),#672);
#13=STYLED_ITEM('',(#691),#14);
#14=MANIFOLD_SOLID_BREP('Solid1',#403);
#15=FACE_BOUND('',#68,.T.);
#16=FACE_BOUND('',#74,.T.);
#17=FACE_BOUND('',#78,.T.);
#18=FACE_BOUND('',#80,.T.);
#19=FACE_BOUND('',#82,.T.);
#20=FACE_BOUND('',#84,.T.);
#21=FACE_BOUND('',#87,.T.);
#22=FACE_BOUND('',#91,.T.);
#23=FACE_BOUND('',#94,.T.);
#24=FACE_BOUND('',#98,.T.);
#25=PLANE('',#408);
#26=PLANE('',#409);
#27=PLANE('',#414);
#28=PLANE('',#418);
#29=PLANE('',#419);
#30=PLANE('',#424);
#31=PLANE('',#431);
#32=PLANE('',#432);
#33=PLANE('',#433);
#34=PLANE('',#436);
#35=PLANE('',#437);
#36=PLANE('',#438);
#37=PLANE('',#439);
#38=PLANE('',#442);
#39=PLANE('',#443);
#40=PLANE('',#444);
#41=FACE_OUTER_BOUND('',#65,.T.);
#42=FACE_OUTER_BOUND('',#66,.T.);
#43=FACE_OUTER_BOUND('',#67,.T.);
#44=FACE_OUTER_BOUND('',#69,.T.);
#45=FACE_OUTER_BOUND('',#70,.T.);
#46=FACE_OUTER_BOUND('',#71,.T.);
#47=FACE_OUTER_BOUND('',#72,.T.);
#48=FACE_OUTER_BOUND('',#73,.T.);
#49=FACE_OUTER_BOUND('',#75,.T.);
#50=FACE_OUTER_BOUND('',#76,.T.);
#51=FACE_OUTER_BOUND('',#77,.T.);
#52=FACE_OUTER_BOUND('',#79,.T.);
#53=FACE_OUTER_BOUND('',#81,.T.);
#54=FACE_OUTER_BOUND('',#83,.T.);
#55=FACE_OUTER_BOUND('',#85,.T.);
#56=FACE_OUTER_BOUND('',#86,.T.);
#57=FACE_OUTER_BOUND('',#88,.T.);
#58=FACE_OUTER_BOUND('',#89,.T.);
#59=FACE_OUTER_BOUND('',#90,.T.);
#60=FACE_OUTER_BOUND('',#92,.T.);
#61=FACE_OUTER_BOUND('',#93,.T.);
#62=FACE_OUTER_BOUND('',#95,.T.);
#63=FACE_OUTER_BOUND('',#96,.T.);
#64=FACE_OUTER_BOUND('',#97,.T.);
#65=EDGE_LOOP('',(#267,#268,#269,#270));
#66=EDGE_LOOP('',(#271,#272,#273,#274));
#67=EDGE_LOOP('',(#275,#276,#277,#278,#279,#280));
#68=EDGE_LOOP('',(#281));
#69=EDGE_LOOP('',(#282,#283,#284,#285));
#70=EDGE_LOOP('',(#286,#287,#288,#289,#290));
#71=EDGE_LOOP('',(#291,#292,#293,#294));
#72=EDGE_LOOP('',(#295,#296,#297,#298));
#73=EDGE_LOOP('',(#299,#300,#301,#302,#303,#304));
#74=EDGE_LOOP('',(#305));
#75=EDGE_LOOP('',(#306,#307,#308,#309));
#76=EDGE_LOOP('',(#310,#311,#312,#313,#314));
#77=EDGE_LOOP('',(#315));
#78=EDGE_LOOP('',(#316));
#79=EDGE_LOOP('',(#317,#318,#319));
#80=EDGE_LOOP('',(#320,#321,#322));
#81=EDGE_LOOP('',(#323));
#82=EDGE_LOOP('',(#324));
#83=EDGE_LOOP('',(#325));
#84=EDGE_LOOP('',(#326));
#85=EDGE_LOOP('',(#327,#328,#329,#330));
#86=EDGE_LOOP('',(#331));
#87=EDGE_LOOP('',(#332));
#88=EDGE_LOOP('',(#333,#334,#335,#336));
#89=EDGE_LOOP('',(#337,#338,#339,#340,#341));
#90=EDGE_LOOP('',(#342,#343,#344,#345,#346,#347));
#91=EDGE_LOOP('',(#348));
#92=EDGE_LOOP('',(#349,#350,#351,#352));
#93=EDGE_LOOP('',(#353));
#94=EDGE_LOOP('',(#354));
#95=EDGE_LOOP('',(#355,#356,#357,#358,#359));
#96=EDGE_LOOP('',(#360,#361,#362,#363));
#97=EDGE_LOOP('',(#364,#365,#366,#367,#368,#369));
#98=EDGE_LOOP('',(#370));
#99=LINE('',#567,#133);
#100=LINE('',#570,#134);
#101=LINE('',#573,#135);
#102=LINE('',#575,#136);
#103=LINE('',#576,#137);
#104=LINE('',#579,#138);
#105=LINE('',#581,#139);
#106=LINE('',#583,#140);
#107=LINE('',#590,#141);
#108=LINE('',#593,#142);
#109=LINE('',#595,#143);
#110=LINE('',#596,#144);
#111=LINE('',#602,#145);
#112=LINE('',#605,#146);
#113=LINE('',#608,#147);
#114=LINE('',#610,#148);
#115=LINE('',#611,#149);
#116=LINE('',#614,#150);
#117=LINE('',#616,#151);
#118=LINE('',#618,#152);
#119=LINE('',#625,#153);
#120=LINE('',#628,#154);
#121=LINE('',#630,#155);
#122=LINE('',#631,#156);
#123=LINE('',#640,#157);
#124=LINE('',#643,#158);
#125=LINE('',#648,#159);
#126=LINE('',#649,#160);
#127=LINE('',#654,#161);
#128=LINE('',#656,#162);
#129=LINE('',#660,#163);
#130=LINE('',#661,#164);
#131=LINE('',#666,#165);
#132=LINE('',#667,#166);
#133=VECTOR('',#451,1.);
#134=VECTOR('',#454,1.);
#135=VECTOR('',#457,3.);
#136=VECTOR('',#458,1.);
#137=VECTOR('',#459,3.);
#138=VECTOR('',#462,15.);
#139=VECTOR('',#463,9.);
#140=VECTOR('',#464,15.);
#141=VECTOR('',#473,1.);
#142=VECTOR('',#476,0.5);
#143=VECTOR('',#477,0.5);
#144=VECTOR('',#478,15.);
#145=VECTOR('',#483,1.);
#146=VECTOR('',#486,1.);
#147=VECTOR('',#489,3.00000000000001);
#148=VECTOR('',#490,1.);
#149=VECTOR('',#491,3.00000000000001);
#150=VECTOR('',#494,15.);
#151=VECTOR('',#495,8.99999999999999);
#152=VECTOR('',#496,15.);
#153=VECTOR('',#505,1.);
#154=VECTOR('',#508,0.5);
#155=VECTOR('',#509,0.5);
#156=VECTOR('',#510,15.);
#157=VECTOR('',#521,8.99999999999995);
#158=VECTOR('',#524,8.99999999999999);
#159=VECTOR('',#531,0.5);
#160=VECTOR('',#532,8.99999999999999);
#161=VECTOR('',#539,0.5);
#162=VECTOR('',#542,15.);
#163=VECTOR('',#547,0.5);
#164=VECTOR('',#548,9.);
#165=VECTOR('',#555,15.);
#166=VECTOR('',#556,0.5);
#167=CIRCLE('',#406,3.);
#168=CIRCLE('',#407,3.);
#169=CIRCLE('',#410,3.);
#170=CIRCLE('',#411,2.5);
#171=CIRCLE('',#413,3.);
#172=CIRCLE('',#416,3.);
#173=CIRCLE('',#417,3.);
#174=CIRCLE('',#420,3.);
#175=CIRCLE('',#421,2.5);
#176=CIRCLE('',#423,3.);
#177=CIRCLE('',#426,9.55);
#178=CIRCLE('',#427,9.55);
#179=CIRCLE('',#429,14.3);
#180=CIRCLE('',#430,14.3);
#181=CIRCLE('',#435,2.5);
#182=CIRCLE('',#441,2.5);
#183=VERTEX_POINT('',#563);
#184=VERTEX_POINT('',#564);
#185=VERTEX_POINT('',#566);
#186=VERTEX_POINT('',#568);
#187=VERTEX_POINT('',#572);
#188=VERTEX_POINT('',#574);
#189=VERTEX_POINT('',#578);
#190=VERTEX_POINT('',#580);
#191=VERTEX_POINT('',#582);
#192=VERTEX_POINT('',#585);
#193=VERTEX_POINT('',#588);
#194=VERTEX_POINT('',#592);
#195=VERTEX_POINT('',#594);
#196=VERTEX_POINT('',#598);
#197=VERTEX_POINT('',#599);
#198=VERTEX_POINT('',#601);
#199=VERTEX_POINT('',#603);
#200=VERTEX_POINT('',#607);
#201=VERTEX_POINT('',#609);
#202=VERTEX_POINT('',#613);
#203=VERTEX_POINT('',#615);
#204=VERTEX_POINT('',#617);
#205=VERTEX_POINT('',#620);
#206=VERTEX_POINT('',#623);
#207=VERTEX_POINT('',#627);
#208=VERTEX_POINT('',#629);
#209=VERTEX_POINT('',#633);
#210=VERTEX_POINT('',#635);
#211=VERTEX_POINT('',#639);
#212=VERTEX_POINT('',#641);
#213=VERTEX_POINT('',#647);
#214=VERTEX_POINT('',#651);
#215=VERTEX_POINT('',#659);
#216=VERTEX_POINT('',#663);
#217=EDGE_CURVE('',#183,#184,#167,.T.);
#218=EDGE_CURVE('',#184,#185,#99,.T.);
#219=EDGE_CURVE('',#185,#186,#168,.T.);
#220=EDGE_CURVE('',#186,#183,#100,.T.);
#221=EDGE_CURVE('',#187,#186,#101,.T.);
#222=EDGE_CURVE('',#188,#187,#102,.T.);
#223=EDGE_CURVE('',#183,#188,#103,.T.);
#224=EDGE_CURVE('',#185,#189,#104,.T.);
#225=EDGE_CURVE('',#189,#190,#105,.T.);
#226=EDGE_CURVE('',#190,#191,#106,.T.);
#227=EDGE_CURVE('',#187,#191,#169,.T.);
#228=EDGE_CURVE('',#192,#192,#170,.T.);
#229=EDGE_CURVE('',#193,#188,#171,.T.);
#230=EDGE_CURVE('',#191,#193,#107,.T.);
#231=EDGE_CURVE('',#194,#190,#108,.T.);
#232=EDGE_CURVE('',#195,#194,#109,.T.);
#233=EDGE_CURVE('',#193,#195,#110,.T.);
#234=EDGE_CURVE('',#196,#197,#172,.T.);
#235=EDGE_CURVE('',#197,#198,#111,.T.);
#236=EDGE_CURVE('',#198,#199,#173,.T.);
#237=EDGE_CURVE('',#199,#196,#112,.T.);
#238=EDGE_CURVE('',#200,#199,#113,.T.);
#239=EDGE_CURVE('',#201,#200,#114,.T.);
#240=EDGE_CURVE('',#196,#201,#115,.T.);
#241=EDGE_CURVE('',#198,#202,#116,.T.);
#242=EDGE_CURVE('',#202,#203,#117,.T.);
#243=EDGE_CURVE('',#203,#204,#118,.T.);
#244=EDGE_CURVE('',#200,#204,#174,.T.);
#245=EDGE_CURVE('',#205,#205,#175,.T.);
#246=EDGE_CURVE('',#206,#201,#176,.T.);
#247=EDGE_CURVE('',#204,#206,#119,.T.);
#248=EDGE_CURVE('',#203,#207,#120,.T.);
#249=EDGE_CURVE('',#207,#208,#121,.T.);
#250=EDGE_CURVE('',#206,#208,#122,.T.);
#251=EDGE_CURVE('',#209,#209,#177,.T.);
#252=EDGE_CURVE('',#210,#210,#178,.T.);
#253=EDGE_CURVE('',#194,#194,#179,.T.);
#254=EDGE_CURVE('',#211,#194,#123,.T.);
#255=EDGE_CURVE('',#212,#212,#180,.T.);
#256=EDGE_CURVE('',#212,#207,#124,.T.);
#257=EDGE_CURVE('',#213,#212,#125,.T.);
#258=EDGE_CURVE('',#208,#213,#126,.T.);
#259=EDGE_CURVE('',#214,#214,#181,.T.);
#260=EDGE_CURVE('',#212,#202,#127,.T.);
#261=EDGE_CURVE('',#213,#197,#128,.T.);
#262=EDGE_CURVE('',#211,#215,#129,.T.);
#263=EDGE_CURVE('',#195,#215,#130,.T.);
#264=EDGE_CURVE('',#216,#216,#182,.T.);
#265=EDGE_CURVE('',#215,#184,#131,.T.);
#266=EDGE_CURVE('',#189,#211,#132,.T.);
#267=ORIENTED_EDGE('',*,*,#217,.T.);
#268=ORIENTED_EDGE('',*,*,#218,.T.);
#269=ORIENTED_EDGE('',*,*,#219,.T.);
#270=ORIENTED_EDGE('',*,*,#220,.T.);
#271=ORIENTED_EDGE('',*,*,#220,.F.);
#272=ORIENTED_EDGE('',*,*,#221,.F.);
#273=ORIENTED_EDGE('',*,*,#222,.F.);
#274=ORIENTED_EDGE('',*,*,#223,.F.);
#275=ORIENTED_EDGE('',*,*,#219,.F.);
#276=ORIENTED_EDGE('',*,*,#224,.T.);
#277=ORIENTED_EDGE('',*,*,#225,.T.);
#278=ORIENTED_EDGE('',*,*,#226,.T.);
#279=ORIENTED_EDGE('',*,*,#227,.F.);
#280=ORIENTED_EDGE('',*,*,#221,.T.);
#281=ORIENTED_EDGE('',*,*,#228,.T.);
#282=ORIENTED_EDGE('',*,*,#229,.T.);
#283=ORIENTED_EDGE('',*,*,#222,.T.);
#284=ORIENTED_EDGE('',*,*,#227,.T.);
#285=ORIENTED_EDGE('',*,*,#230,.T.);
#286=ORIENTED_EDGE('',*,*,#230,.F.);
#287=ORIENTED_EDGE('',*,*,#226,.F.);
#288=ORIENTED_EDGE('',*,*,#231,.F.);
#289=ORIENTED_EDGE('',*,*,#232,.F.);
#290=ORIENTED_EDGE('',*,*,#233,.F.);
#291=ORIENTED_EDGE('',*,*,#234,.T.);
#292=ORIENTED_EDGE('',*,*,#235,.T.);
#293=ORIENTED_EDGE('',*,*,#236,.T.);
#294=ORIENTED_EDGE('',*,*,#237,.T.);
#295=ORIENTED_EDGE('',*,*,#237,.F.);
#296=ORIENTED_EDGE('',*,*,#238,.F.);
#297=ORIENTED_EDGE('',*,*,#239,.F.);
#298=ORIENTED_EDGE('',*,*,#240,.F.);
#299=ORIENTED_EDGE('',*,*,#236,.F.);
#300=ORIENTED_EDGE('',*,*,#241,.T.);
#301=ORIENTED_EDGE('',*,*,#242,.T.);
#302=ORIENTED_EDGE('',*,*,#243,.T.);
#303=ORIENTED_EDGE('',*,*,#244,.F.);
#304=ORIENTED_EDGE('',*,*,#238,.T.);
#305=ORIENTED_EDGE('',*,*,#245,.T.);
#306=ORIENTED_EDGE('',*,*,#246,.T.);
#307=ORIENTED_EDGE('',*,*,#239,.T.);
#308=ORIENTED_EDGE('',*,*,#244,.T.);
#309=ORIENTED_EDGE('',*,*,#247,.T.);
#310=ORIENTED_EDGE('',*,*,#247,.F.);
#311=ORIENTED_EDGE('',*,*,#243,.F.);
#312=ORIENTED_EDGE('',*,*,#248,.T.);
#313=ORIENTED_EDGE('',*,*,#249,.T.);
#314=ORIENTED_EDGE('',*,*,#250,.F.);
#315=ORIENTED_EDGE('',*,*,#251,.F.);
#316=ORIENTED_EDGE('',*,*,#252,.F.);
#317=ORIENTED_EDGE('',*,*,#253,.F.);
#318=ORIENTED_EDGE('',*,*,#254,.F.);
#319=ORIENTED_EDGE('',*,*,#254,.T.);
#320=ORIENTED_EDGE('',*,*,#255,.T.);
#321=ORIENTED_EDGE('',*,*,#256,.T.);
#322=ORIENTED_EDGE('',*,*,#256,.F.);
#323=ORIENTED_EDGE('',*,*,#253,.T.);
#324=ORIENTED_EDGE('',*,*,#251,.T.);
#325=ORIENTED_EDGE('',*,*,#255,.F.);
#326=ORIENTED_EDGE('',*,*,#252,.T.);
#327=ORIENTED_EDGE('',*,*,#256,.F.);
#328=ORIENTED_EDGE('',*,*,#257,.F.);
#329=ORIENTED_EDGE('',*,*,#258,.F.);
#330=ORIENTED_EDGE('',*,*,#249,.F.);
#331=ORIENTED_EDGE('',*,*,#245,.F.);
#332=ORIENTED_EDGE('',*,*,#259,.F.);
#333=ORIENTED_EDGE('',*,*,#256,.T.);
#334=ORIENTED_EDGE('',*,*,#248,.F.);
#335=ORIENTED_EDGE('',*,*,#242,.F.);
#336=ORIENTED_EDGE('',*,*,#260,.F.);
#337=ORIENTED_EDGE('',*,*,#235,.F.);
#338=ORIENTED_EDGE('',*,*,#261,.F.);
#339=ORIENTED_EDGE('',*,*,#257,.T.);
#340=ORIENTED_EDGE('',*,*,#260,.T.);
#341=ORIENTED_EDGE('',*,*,#241,.F.);
#342=ORIENTED_EDGE('',*,*,#234,.F.);
#343=ORIENTED_EDGE('',*,*,#240,.T.);
#344=ORIENTED_EDGE('',*,*,#246,.F.);
#345=ORIENTED_EDGE('',*,*,#250,.T.);
#346=ORIENTED_EDGE('',*,*,#258,.T.);
#347=ORIENTED_EDGE('',*,*,#261,.T.);
#348=ORIENTED_EDGE('',*,*,#259,.T.);
#349=ORIENTED_EDGE('',*,*,#254,.F.);
#350=ORIENTED_EDGE('',*,*,#262,.T.);
#351=ORIENTED_EDGE('',*,*,#263,.F.);
#352=ORIENTED_EDGE('',*,*,#232,.T.);
#353=ORIENTED_EDGE('',*,*,#228,.F.);
#354=ORIENTED_EDGE('',*,*,#264,.F.);
#355=ORIENTED_EDGE('',*,*,#218,.F.);
#356=ORIENTED_EDGE('',*,*,#265,.F.);
#357=ORIENTED_EDGE('',*,*,#262,.F.);
#358=ORIENTED_EDGE('',*,*,#266,.F.);
#359=ORIENTED_EDGE('',*,*,#224,.F.);
#360=ORIENTED_EDGE('',*,*,#254,.T.);
#361=ORIENTED_EDGE('',*,*,#231,.T.);
#362=ORIENTED_EDGE('',*,*,#225,.F.);
#363=ORIENTED_EDGE('',*,*,#266,.T.);
#364=ORIENTED_EDGE('',*,*,#217,.F.);
#365=ORIENTED_EDGE('',*,*,#223,.T.);
#366=ORIENTED_EDGE('',*,*,#229,.F.);
#367=ORIENTED_EDGE('',*,*,#233,.T.);
#368=ORIENTED_EDGE('',*,*,#263,.T.);
#369=ORIENTED_EDGE('',*,*,#265,.T.);
#370=ORIENTED_EDGE('',*,*,#264,.T.);
#371=CYLINDRICAL_SURFACE('',#405,3.);
#372=CYLINDRICAL_SURFACE('',#412,3.);
#373=CYLINDRICAL_SURFACE('',#415,3.);
#374=CYLINDRICAL_SURFACE('',#422,3.);
#375=CYLINDRICAL_SURFACE('',#425,9.55);
#376=CYLINDRICAL_SURFACE('',#428,14.3);
#377=CYLINDRICAL_SURFACE('',#434,2.5);
#378=CYLINDRICAL_SURFACE('',#440,2.5);
#379=ADVANCED_FACE('',(#41),#371,.T.);
#380=ADVANCED_FACE('',(#42),#25,.T.);
#381=ADVANCED_FACE('',(#43,#15),#26,.T.);
#382=ADVANCED_FACE('',(#44),#372,.T.);
#383=ADVANCED_FACE('',(#45),#27,.T.);
#384=ADVANCED_FACE('',(#46),#373,.T.);
#385=ADVANCED_FACE('',(#47),#28,.T.);
#386=ADVANCED_FACE('',(#48,#16),#29,.T.);
#387=ADVANCED_FACE('',(#49),#374,.T.);
#388=ADVANCED_FACE('',(#50),#30,.T.);
#389=ADVANCED_FACE('',(#51,#17),#375,.F.);
#390=ADVANCED_FACE('',(#52,#18),#376,.T.);
#391=ADVANCED_FACE('',(#53,#19),#31,.F.);
#392=ADVANCED_FACE('',(#54,#20),#32,.T.);
#393=ADVANCED_FACE('',(#55),#33,.T.);
#394=ADVANCED_FACE('',(#56,#21),#377,.F.);
#395=ADVANCED_FACE('',(#57),#34,.T.);
#396=ADVANCED_FACE('',(#58),#35,.T.);
#397=ADVANCED_FACE('',(#59,#22),#36,.T.);
#398=ADVANCED_FACE('',(#60),#37,.T.);
#399=ADVANCED_FACE('',(#61,#23),#378,.F.);
#400=ADVANCED_FACE('',(#62),#38,.T.);
#401=ADVANCED_FACE('',(#63),#39,.T.);
#402=ADVANCED_FACE('',(#64,#24),#40,.T.);
#403=CLOSED_SHELL('',(#379,#380,#381,#382,#383,#384,#385,#386,#387,#388,
#389,#390,#391,#392,#393,#394,#395,#396,#397,#398,#399,#400,#401,#402));
#404=AXIS2_PLACEMENT_3D('placement',#561,#445,#446);
#405=AXIS2_PLACEMENT_3D('',#562,#447,#448);
#406=AXIS2_PLACEMENT_3D('',#565,#449,#450);
#407=AXIS2_PLACEMENT_3D('',#569,#452,#453);
#408=AXIS2_PLACEMENT_3D('',#571,#455,#456);
#409=AXIS2_PLACEMENT_3D('',#577,#460,#461);
#410=AXIS2_PLACEMENT_3D('',#584,#465,#466);
#411=AXIS2_PLACEMENT_3D('',#586,#467,#468);
#412=AXIS2_PLACEMENT_3D('',#587,#469,#470);
#413=AXIS2_PLACEMENT_3D('',#589,#471,#472);
#414=AXIS2_PLACEMENT_3D('',#591,#474,#475);
#415=AXIS2_PLACEMENT_3D('',#597,#479,#480);
#416=AXIS2_PLACEMENT_3D('',#600,#481,#482);
#417=AXIS2_PLACEMENT_3D('',#604,#484,#485);
#418=AXIS2_PLACEMENT_3D('',#606,#487,#488);
#419=AXIS2_PLACEMENT_3D('',#612,#492,#493);
#420=AXIS2_PLACEMENT_3D('',#619,#497,#498);
#421=AXIS2_PLACEMENT_3D('',#621,#499,#500);
#422=AXIS2_PLACEMENT_3D('',#622,#501,#502);
#423=AXIS2_PLACEMENT_3D('',#624,#503,#504);
#424=AXIS2_PLACEMENT_3D('',#626,#506,#507);
#425=AXIS2_PLACEMENT_3D('',#632,#511,#512);
#426=AXIS2_PLACEMENT_3D('',#634,#513,#514);
#427=AXIS2_PLACEMENT_3D('',#636,#515,#516);
#428=AXIS2_PLACEMENT_3D('',#637,#517,#518);
#429=AXIS2_PLACEMENT_3D('',#638,#519,#520);
#430=AXIS2_PLACEMENT_3D('',#642,#522,#523);
#431=AXIS2_PLACEMENT_3D('',#644,#525,#526);
#432=AXIS2_PLACEMENT_3D('',#645,#527,#528);
#433=AXIS2_PLACEMENT_3D('',#646,#529,#530);
#434=AXIS2_PLACEMENT_3D('',#650,#533,#534);
#435=AXIS2_PLACEMENT_3D('',#652,#535,#536);
#436=AXIS2_PLACEMENT_3D('',#653,#537,#538);
#437=AXIS2_PLACEMENT_3D('',#655,#540,#541);
#438=AXIS2_PLACEMENT_3D('',#657,#543,#544);
#439=AXIS2_PLACEMENT_3D('',#658,#545,#546);
#440=AXIS2_PLACEMENT_3D('',#662,#549,#550);
#441=AXIS2_PLACEMENT_3D('',#664,#551,#552);
#442=AXIS2_PLACEMENT_3D('',#665,#553,#554);
#443=AXIS2_PLACEMENT_3D('',#668,#557,#558);
#444=AXIS2_PLACEMENT_3D('',#669,#559,#560);
#445=DIRECTION('axis',(0.,0.,1.));
#446=DIRECTION('refdir',(1.,0.,0.));
#447=DIRECTION('center_axis',(0.,0.,1.));
#448=DIRECTION('ref_axis',(0.707106781186548,0.707106781186547,0.));
#449=DIRECTION('center_axis',(0.,0.,-1.));
#450=DIRECTION('ref_axis',(0.707106781186548,0.707106781186547,0.));
#451=DIRECTION('',(0.,0.,-1.));
#452=DIRECTION('center_axis',(0.,0.,1.));
#453=DIRECTION('ref_axis',(0.707106781186548,0.707106781186547,0.));
#454=DIRECTION('',(0.,0.,1.));
#455=DIRECTION('center_axis',(0.,1.,0.));
#456=DIRECTION('ref_axis',(-1.,0.,0.));
#457=DIRECTION('',(1.,0.,0.));
#458=DIRECTION('',(0.,0.,-1.));
#459=DIRECTION('',(-1.,0.,0.));
#460=DIRECTION('center_axis',(0.,0.,-1.));
#461=DIRECTION('ref_axis',(-1.,0.,0.));
#462=DIRECTION('',(0.,-1.,0.));
#463=DIRECTION('',(-1.,0.,0.));
#464=DIRECTION('',(0.,1.,0.));
#465=DIRECTION('center_axis',(0.,0.,1.));
#466=DIRECTION('ref_axis',(-0.707106781186548,0.707106781186547,0.));
#467=DIRECTION('center_axis',(0.,0.,1.));
#468=DIRECTION('ref_axis',(-1.,0.,0.));
#469=DIRECTION('center_axis',(0.,0.,1.));
#470=DIRECTION('ref_axis',(-0.707106781186548,0.707106781186547,0.));
#471=DIRECTION('center_axis',(0.,0.,-1.));
#472=DIRECTION('ref_axis',(-0.707106781186548,0.707106781186547,0.));
#473=DIRECTION('',(0.,0.,1.));
#474=DIRECTION('center_axis',(-1.,0.,0.));
#475=DIRECTION('ref_axis',(0.,-1.,0.));
#476=DIRECTION('',(0.,0.,-1.));
#477=DIRECTION('',(0.,0.,-1.));
#478=DIRECTION('',(0.,-1.,0.));
#479=DIRECTION('center_axis',(0.,0.,1.));
#480=DIRECTION('ref_axis',(0.707106781186544,0.707106781186551,0.));
#481=DIRECTION('center_axis',(0.,0.,-1.));
#482=DIRECTION('ref_axis',(0.707106781186544,0.707106781186551,0.));
#483=DIRECTION('',(0.,0.,-1.));
#484=DIRECTION('center_axis',(0.,0.,1.));
#485=DIRECTION('ref_axis',(0.707106781186544,0.707106781186551,0.));
#486=DIRECTION('',(0.,0.,1.));
#487=DIRECTION('center_axis',(0.,1.,0.));
#488=DIRECTION('ref_axis',(-1.,0.,0.));
#489=DIRECTION('',(1.,0.,0.));
#490=DIRECTION('',(0.,0.,-1.));
#491=DIRECTION('',(-1.,0.,0.));
#492=DIRECTION('center_axis',(0.,0.,-1.));
#493=DIRECTION('ref_axis',(-1.,0.,0.));
#494=DIRECTION('',(0.,-1.,0.));
#495=DIRECTION('',(-1.,0.,0.));
#496=DIRECTION('',(0.,1.,0.));
#497=DIRECTION('center_axis',(0.,0.,1.));
#498=DIRECTION('ref_axis',(-0.707106781186553,0.707106781186542,0.));
#499=DIRECTION('center_axis',(0.,0.,1.));
#500=DIRECTION('ref_axis',(-1.,0.,0.));
#501=DIRECTION('center_axis',(0.,0.,1.));
#502=DIRECTION('ref_axis',(-0.707106781186553,0.707106781186542,0.));
#503=DIRECTION('center_axis',(0.,0.,-1.));
#504=DIRECTION('ref_axis',(-0.707106781186553,0.707106781186542,0.));
#505=DIRECTION('',(0.,0.,1.));
#506=DIRECTION('center_axis',(-1.,0.,0.));
#507=DIRECTION('ref_axis',(0.,-1.,0.));
#508=DIRECTION('',(0.,0.,1.));
#509=DIRECTION('',(0.,0.,1.));
#510=DIRECTION('',(0.,-1.,0.));
#511=DIRECTION('center_axis',(-1.,0.,0.));
#512=DIRECTION('ref_axis',(0.,0.,1.));
#513=DIRECTION('center_axis',(1.,0.,0.));
#514=DIRECTION('ref_axis',(0.,0.,1.));
#515=DIRECTION('center_axis',(-1.,0.,0.));
#516=DIRECTION('ref_axis',(0.,0.,1.));
#517=DIRECTION('center_axis',(-1.,0.,0.));
#518=DIRECTION('ref_axis',(0.,0.,1.));
#519=DIRECTION('center_axis',(-1.,0.,0.));
#520=DIRECTION('ref_axis',(0.,0.,1.));
#521=DIRECTION('',(-1.,0.,0.));
#522=DIRECTION('center_axis',(-1.,0.,0.));
#523=DIRECTION('ref_axis',(0.,0.,1.));
#524=DIRECTION('',(-1.,0.,0.));
#525=DIRECTION('center_axis',(1.,0.,0.));
#526=DIRECTION('ref_axis',(0.,0.,-1.));
#527=DIRECTION('center_axis',(1.,0.,0.));
#528=DIRECTION('ref_axis',(0.,0.,-1.));
#529=DIRECTION('center_axis',(0.,-1.,0.));
#530=DIRECTION('ref_axis',(1.,0.,0.));
#531=DIRECTION('',(0.,0.,-1.));
#532=DIRECTION('',(1.,0.,0.));
#533=DIRECTION('center_axis',(0.,0.,-1.));
#534=DIRECTION('ref_axis',(-1.,0.,0.));
#535=DIRECTION('center_axis',(0.,0.,-1.));
#536=DIRECTION('ref_axis',(-1.,0.,0.));
#537=DIRECTION('center_axis',(0.,-1.,0.));
#538=DIRECTION('ref_axis',(1.,0.,0.));
#539=DIRECTION('',(0.,0.,-1.));
#540=DIRECTION('center_axis',(1.,0.,0.));
#541=DIRECTION('ref_axis',(0.,1.,0.));
#542=DIRECTION('',(0.,1.,0.));
#543=DIRECTION('center_axis',(0.,0.,1.));
#544=DIRECTION('ref_axis',(1.,0.,0.));
#545=DIRECTION('center_axis',(0.,-1.,0.));
#546=DIRECTION('ref_axis',(1.,0.,0.));
#547=DIRECTION('',(0.,0.,1.));
#548=DIRECTION('',(1.,0.,0.));
#549=DIRECTION('center_axis',(0.,0.,-1.));
#550=DIRECTION('ref_axis',(-1.,0.,0.));
#551=DIRECTION('center_axis',(0.,0.,-1.));
#552=DIRECTION('ref_axis',(-1.,0.,0.));
#553=DIRECTION('center_axis',(1.,0.,0.));
#554=DIRECTION('ref_axis',(0.,1.,0.));
#555=DIRECTION('',(0.,1.,0.));
#556=DIRECTION('',(0.,0.,1.));
#557=DIRECTION('center_axis',(0.,-1.,0.));
#558=DIRECTION('ref_axis',(1.,0.,0.));
#559=DIRECTION('center_axis',(0.,0.,1.));
#560=DIRECTION('ref_axis',(1.,0.,0.));
#561=CARTESIAN_POINT('',(0.,0.,0.));
#562=CARTESIAN_POINT('Origin',(6.,29.3,0.));
#563=CARTESIAN_POINT('',(6.,32.3,0.5));
#564=CARTESIAN_POINT('',(9.,29.3,0.5));
#565=CARTESIAN_POINT('Origin',(6.,29.3,0.5));
#566=CARTESIAN_POINT('',(9.,29.3,-0.5));
#567=CARTESIAN_POINT('',(9.,29.3,0.));
#568=CARTESIAN_POINT('',(6.,32.3,-0.5));
#569=CARTESIAN_POINT('Origin',(6.,29.3,-0.5));
#570=CARTESIAN_POINT('',(6.,32.3,0.));
#571=CARTESIAN_POINT('Origin',(9.,32.3,0.));
#572=CARTESIAN_POINT('',(3.,32.3,-0.5));
#573=CARTESIAN_POINT('',(9.,32.3,-0.5));
#574=CARTESIAN_POINT('',(3.,32.3,0.5));
#575=CARTESIAN_POINT('',(3.,32.3,0.));
#576=CARTESIAN_POINT('',(9.,32.3,0.5));
#577=CARTESIAN_POINT('Origin',(4.5,23.3,-0.5));
#578=CARTESIAN_POINT('',(9.,14.3,-0.5));
#579=CARTESIAN_POINT('',(9.,14.3,-0.5));
#580=CARTESIAN_POINT('',(0.,14.3,-0.5));
#581=CARTESIAN_POINT('',(0.,14.3,-0.5));
#582=CARTESIAN_POINT('',(0.,29.3,-0.5));
#583=CARTESIAN_POINT('',(0.,32.3,-0.5));
#584=CARTESIAN_POINT('Origin',(3.,29.3,-0.5));
#585=CARTESIAN_POINT('',(7.,27.8,-0.5));
#586=CARTESIAN_POINT('Origin',(4.5,27.8,-0.5));
#587=CARTESIAN_POINT('Origin',(3.,29.3,0.));
#588=CARTESIAN_POINT('',(0.,29.3,0.5));
#589=CARTESIAN_POINT('Origin',(3.,29.3,0.5));
#590=CARTESIAN_POINT('',(0.,29.3,0.));
#591=CARTESIAN_POINT('Origin',(0.,32.3,0.));
#592=CARTESIAN_POINT('',(3.5527136788005E-14,14.3,0.));
#593=CARTESIAN_POINT('',(0.,14.3,0.));
#594=CARTESIAN_POINT('',(0.,14.3,0.5));
#595=CARTESIAN_POINT('',(0.,14.3,0.));
#596=CARTESIAN_POINT('',(0.,32.3,0.5));
#597=CARTESIAN_POINT('Origin',(264.,29.3,0.));
#598=CARTESIAN_POINT('',(264.,32.3,0.5));
#599=CARTESIAN_POINT('',(267.,29.3,0.5));
#600=CARTESIAN_POINT('Origin',(264.,29.3,0.5));
#601=CARTESIAN_POINT('',(267.,29.3,-0.5));
#602=CARTESIAN_POINT('',(267.,29.3,0.));
#603=CARTESIAN_POINT('',(264.,32.3,-0.5));
#604=CARTESIAN_POINT('Origin',(264.,29.3,-0.5));
#605=CARTESIAN_POINT('',(264.,32.3,0.));
#606=CARTESIAN_POINT('Origin',(267.,32.3,0.));
#607=CARTESIAN_POINT('',(261.,32.3,-0.5));
#608=CARTESIAN_POINT('',(267.,32.3,-0.5));
#609=CARTESIAN_POINT('',(261.,32.3,0.5));
#610=CARTESIAN_POINT('',(261.,32.3,0.));
#611=CARTESIAN_POINT('',(267.,32.3,0.5));
#612=CARTESIAN_POINT('Origin',(262.5,23.3,-0.5));
#613=CARTESIAN_POINT('',(267.,14.3,-0.5));
#614=CARTESIAN_POINT('',(267.,14.3,-0.5));
#615=CARTESIAN_POINT('',(258.,14.3,-0.5));
#616=CARTESIAN_POINT('',(258.,14.3,-0.5));
#617=CARTESIAN_POINT('',(258.,29.3,-0.5));
#618=CARTESIAN_POINT('',(258.,32.3,-0.5));
#619=CARTESIAN_POINT('Origin',(261.,29.3,-0.5));
#620=CARTESIAN_POINT('',(265.,27.8,-0.5));
#621=CARTESIAN_POINT('Origin',(262.5,27.8,-0.5));
#622=CARTESIAN_POINT('Origin',(261.,29.3,0.));
#623=CARTESIAN_POINT('',(258.,29.3,0.5));
#624=CARTESIAN_POINT('Origin',(261.,29.3,0.5));
#625=CARTESIAN_POINT('',(258.,29.3,0.));
#626=CARTESIAN_POINT('Origin',(258.,32.3,0.));
#627=CARTESIAN_POINT('',(258.,14.3,0.));
#628=CARTESIAN_POINT('',(258.,14.3,0.));
#629=CARTESIAN_POINT('',(258.,14.3,0.5));
#630=CARTESIAN_POINT('',(258.,14.3,0.));
#631=CARTESIAN_POINT('',(258.,32.3,0.5));
#632=CARTESIAN_POINT('Origin',(267.,0.,0.));
#633=CARTESIAN_POINT('',(0.,1.16953769318572E-15,-9.55));
#634=CARTESIAN_POINT('Origin',(0.,0.,0.));
#635=CARTESIAN_POINT('',(267.,1.16953769318572E-15,-9.55));
#636=CARTESIAN_POINT('Origin',(267.,0.,0.));
#637=CARTESIAN_POINT('Origin',(267.,0.,0.));
#638=CARTESIAN_POINT('Origin',(0.,0.,0.));
#639=CARTESIAN_POINT('',(8.99999999999999,14.3,0.));
#640=CARTESIAN_POINT('',(267.,14.3,0.));
#641=CARTESIAN_POINT('',(267.,14.3,0.));
#642=CARTESIAN_POINT('Origin',(267.,0.,0.));
#643=CARTESIAN_POINT('',(267.,14.3,0.));
#644=CARTESIAN_POINT('Origin',(0.,0.,1.18111006023187E-15));
#645=CARTESIAN_POINT('Origin',(267.,0.,1.18111006023187E-15));
#646=CARTESIAN_POINT('Origin',(258.,14.3,0.));
#647=CARTESIAN_POINT('',(267.,14.3,0.5));
#648=CARTESIAN_POINT('',(267.,14.3,0.));
#649=CARTESIAN_POINT('',(258.,14.3,0.5));
#650=CARTESIAN_POINT('Origin',(262.5,27.8,0.5));
#651=CARTESIAN_POINT('',(265.,27.8,0.5));
#652=CARTESIAN_POINT('Origin',(262.5,27.8,0.5));
#653=CARTESIAN_POINT('Origin',(258.,14.3,0.));
#654=CARTESIAN_POINT('',(267.,14.3,0.));
#655=CARTESIAN_POINT('Origin',(267.,14.3,0.));
#656=CARTESIAN_POINT('',(267.,14.3,0.5));
#657=CARTESIAN_POINT('Origin',(262.5,23.3,0.5));
#658=CARTESIAN_POINT('Origin',(0.,14.3,0.));
#659=CARTESIAN_POINT('',(9.,14.3,0.5));
#660=CARTESIAN_POINT('',(9.,14.3,0.));
#661=CARTESIAN_POINT('',(0.,14.3,0.5));
#662=CARTESIAN_POINT('Origin',(4.5,27.8,0.5));
#663=CARTESIAN_POINT('',(7.,27.8,0.5));
#664=CARTESIAN_POINT('Origin',(4.5,27.8,0.5));
#665=CARTESIAN_POINT('Origin',(9.,14.3,0.));
#666=CARTESIAN_POINT('',(9.,14.3,0.5));
#667=CARTESIAN_POINT('',(9.,14.3,0.));
#668=CARTESIAN_POINT('Origin',(0.,14.3,0.));
#669=CARTESIAN_POINT('Origin',(4.5,23.3,0.5));
#670=UNCERTAINTY_MEASURE_WITH_UNIT(LENGTH_MEASURE(0.01),#674,
'DISTANCE_ACCURACY_VALUE',
'Maximum model space distance between geometric entities at asserted c
onnectivities');
#671=UNCERTAINTY_MEASURE_WITH_UNIT(LENGTH_MEASURE(1.E-6),#674,
'DISTANCE_ACCURACY_VALUE',
'Maximum model space distance between geometric entities at asserted c
onnectivities');
#672=(
GEOMETRIC_REPRESENTATION_CONTEXT(3)
GLOBAL_UNCERTAINTY_ASSIGNED_CONTEXT((#670))
GLOBAL_UNIT_ASSIGNED_CONTEXT((#674,#677,#675))
REPRESENTATION_CONTEXT('','3D')
);
#673=(
GEOMETRIC_REPRESENTATION_CONTEXT(3)
GLOBAL_UNCERTAINTY_ASSIGNED_CONTEXT((#671))
GLOBAL_UNIT_ASSIGNED_CONTEXT((#674,#677,#675))
REPRESENTATION_CONTEXT('','3D')
);
#674=(
LENGTH_UNIT()
NAMED_UNIT(*)
SI_UNIT(.MILLI.,.METRE.)
);
#675=(
NAMED_UNIT(*)
SI_UNIT($,.STERADIAN.)
SOLID_ANGLE_UNIT()
);
#676=DIMENSIONAL_EXPONENTS(0.,0.,0.,0.,0.,0.,0.);
#677=(
CONVERSION_BASED_UNIT('degree',#679)
NAMED_UNIT(#676)
PLANE_ANGLE_UNIT()
);
#678=(
NAMED_UNIT(*)
PLANE_ANGLE_UNIT()
SI_UNIT($,.RADIAN.)
);
#679=PLANE_ANGLE_MEASURE_WITH_UNIT(PLANE_ANGLE_MEASURE(0.01745329252),#678);
#680=SHAPE_DEFINITION_REPRESENTATION(#681,#682);
#681=PRODUCT_DEFINITION_SHAPE('',$,#684);
#682=SHAPE_REPRESENTATION('',(#404),#672);
#683=PRODUCT_DEFINITION_CONTEXT('part definition',#688,'design');
#684=PRODUCT_DEFINITION('EWT225','EWT225',#685,#683);
#685=PRODUCT_DEFINITION_FORMATION('',$,#690);
#686=PRODUCT_RELATED_PRODUCT_CATEGORY('EWT225','EWT225',(#690));
#687=APPLICATION_PROTOCOL_DEFINITION('international standard',
'automotive_design',2009,#688);
#688=APPLICATION_CONTEXT(
'Core Data for Automotive Mechanical Design Process');
#689=PRODUCT_CONTEXT('part definition',#688,'mechanical');
#690=PRODUCT('EWT225','EWT225',$,(#689));
#691=PRESENTATION_STYLE_ASSIGNMENT((#692));
#692=SURFACE_STYLE_USAGE(.BOTH.,#693);
#693=SURFACE_SIDE_STYLE('',(#694));
#694=SURFACE_STYLE_FILL_AREA(#695);
#695=FILL_AREA_STYLE('',(#696));
#696=FILL_AREA_STYLE_COLOUR('',#697);
#697=COLOUR_RGB('',0.749019607843137,0.749019607843137,0.749019607843137);
ENDSEC;
END-ISO-10303-21;
