ISO-10303-21;
HEADER;
/* Generated by software containing ST-Developer
 * from STEP Tools, Inc. (www.steptools.com) 
 */

FILE_DESCRIPTION(
/* description */ (''),
/* implementation_level */ '2;1');

FILE_NAME(
/* name */ 
'C:\\Users\\mulla\\Documents\\SEI Models\\Inventor Files\\EWT\\EWT25_s
tp.stp',
/* time_stamp */ '2019-06-30T13:27:07-04:00',
/* author */ ('mulla'),
/* organization */ (''),
/* preprocessor_version */ 'ST-DEVELOPER v16.1',
/* originating_system */ 'Autodesk Inventor 2016',
/* authorisation */ '');

FILE_SCHEMA (('AUTOMOTIVE_DESIGN { 1 0 10303 214 3 1 1 }'));
ENDSEC;

DATA;
#10=MECHANICAL_DESIGN_GEOMETRIC_PRESENTATION_REPRESENTATION('',(#13),#673);
#11=SHAPE_REPRESENTATION_RELATIONSHIP('SRR','None',#682,#12);
#12=ADVANCED_BREP_SHAPE_REPRESENTATION('',(#14),#672);
#13=STYLED_ITEM('',(#691),#14);
#14=MANIFOLD_SOLID_BREP('Solid1',#403);
#15=FACE_BOUND('',#67,.T.);
#16=FACE_BOUND('',#72,.T.);
#17=FACE_BOUND('',#76,.T.);
#18=FACE_BOUND('',#78,.T.);
#19=FACE_BOUND('',#84,.T.);
#20=FACE_BOUND('',#90,.T.);
#21=FACE_BOUND('',#92,.T.);
#22=FACE_BOUND('',#94,.T.);
#23=FACE_BOUND('',#96,.T.);
#24=FACE_BOUND('',#98,.T.);
#25=PLANE('',#408);
#26=PLANE('',#411);
#27=PLANE('',#417);
#28=PLANE('',#420);
#29=PLANE('',#427);
#30=PLANE('',#428);
#31=PLANE('',#429);
#32=PLANE('',#430);
#33=PLANE('',#431);
#34=PLANE('',#432);
#35=PLANE('',#433);
#36=PLANE('',#434);
#37=PLANE('',#435);
#38=PLANE('',#436);
#39=PLANE('',#443);
#40=PLANE('',#444);
#41=FACE_OUTER_BOUND('',#65,.T.);
#42=FACE_OUTER_BOUND('',#66,.T.);
#43=FACE_OUTER_BOUND('',#68,.T.);
#44=FACE_OUTER_BOUND('',#69,.T.);
#45=FACE_OUTER_BOUND('',#70,.T.);
#46=FACE_OUTER_BOUND('',#71,.T.);
#47=FACE_OUTER_BOUND('',#73,.T.);
#48=FACE_OUTER_BOUND('',#74,.T.);
#49=FACE_OUTER_BOUND('',#75,.T.);
#50=FACE_OUTER_BOUND('',#77,.T.);
#51=FACE_OUTER_BOUND('',#79,.T.);
#52=FACE_OUTER_BOUND('',#80,.T.);
#53=FACE_OUTER_BOUND('',#81,.T.);
#54=FACE_OUTER_BOUND('',#82,.T.);
#55=FACE_OUTER_BOUND('',#83,.T.);
#56=FACE_OUTER_BOUND('',#85,.T.);
#57=FACE_OUTER_BOUND('',#86,.T.);
#58=FACE_OUTER_BOUND('',#87,.T.);
#59=FACE_OUTER_BOUND('',#88,.T.);
#60=FACE_OUTER_BOUND('',#89,.T.);
#61=FACE_OUTER_BOUND('',#91,.T.);
#62=FACE_OUTER_BOUND('',#93,.T.);
#63=FACE_OUTER_BOUND('',#95,.T.);
#64=FACE_OUTER_BOUND('',#97,.T.);
#65=EDGE_LOOP('',(#267,#268,#269,#270));
#66=EDGE_LOOP('',(#271,#272,#273,#274,#275,#276));
#67=EDGE_LOOP('',(#277));
#68=EDGE_LOOP('',(#278,#279,#280,#281));
#69=EDGE_LOOP('',(#282,#283,#284,#285));
#70=EDGE_LOOP('',(#286,#287,#288,#289));
#71=EDGE_LOOP('',(#290,#291,#292,#293,#294,#295));
#72=EDGE_LOOP('',(#296));
#73=EDGE_LOOP('',(#297,#298,#299,#300));
#74=EDGE_LOOP('',(#301,#302,#303,#304));
#75=EDGE_LOOP('',(#305));
#76=EDGE_LOOP('',(#306));
#77=EDGE_LOOP('',(#307));
#78=EDGE_LOOP('',(#308));
#79=EDGE_LOOP('',(#309,#310,#311,#312));
#80=EDGE_LOOP('',(#313,#314,#315,#316));
#81=EDGE_LOOP('',(#317,#318,#319,#320,#321));
#82=EDGE_LOOP('',(#322,#323,#324,#325,#326));
#83=EDGE_LOOP('',(#327,#328,#329,#330,#331,#332));
#84=EDGE_LOOP('',(#333));
#85=EDGE_LOOP('',(#334,#335,#336,#337));
#86=EDGE_LOOP('',(#338,#339,#340,#341,#342));
#87=EDGE_LOOP('',(#343,#344,#345,#346,#347));
#88=EDGE_LOOP('',(#348,#349,#350,#351));
#89=EDGE_LOOP('',(#352,#353,#354,#355,#356,#357));
#90=EDGE_LOOP('',(#358));
#91=EDGE_LOOP('',(#359));
#92=EDGE_LOOP('',(#360));
#93=EDGE_LOOP('',(#361,#362,#363));
#94=EDGE_LOOP('',(#364,#365,#366));
#95=EDGE_LOOP('',(#367));
#96=EDGE_LOOP('',(#368));
#97=EDGE_LOOP('',(#369));
#98=EDGE_LOOP('',(#370));
#99=LINE('',#567,#133);
#100=LINE('',#570,#134);
#101=LINE('',#573,#135);
#102=LINE('',#577,#136);
#103=LINE('',#579,#137);
#104=LINE('',#580,#138);
#105=LINE('',#585,#139);
#106=LINE('',#586,#140);
#107=LINE('',#590,#141);
#108=LINE('',#596,#142);
#109=LINE('',#599,#143);
#110=LINE('',#602,#144);
#111=LINE('',#606,#145);
#112=LINE('',#608,#146);
#113=LINE('',#609,#147);
#114=LINE('',#614,#148);
#115=LINE('',#615,#149);
#116=LINE('',#619,#150);
#117=LINE('',#629,#151);
#118=LINE('',#630,#152);
#119=LINE('',#631,#153);
#120=LINE('',#634,#154);
#121=LINE('',#636,#155);
#122=LINE('',#637,#156);
#123=LINE('',#639,#157);
#124=LINE('',#641,#158);
#125=LINE('',#646,#159);
#126=LINE('',#647,#160);
#127=LINE('',#648,#161);
#128=LINE('',#651,#162);
#129=LINE('',#652,#163);
#130=LINE('',#655,#164);
#131=LINE('',#656,#165);
#132=LINE('',#658,#166);
#133=VECTOR('',#451,1.);
#134=VECTOR('',#454,1.);
#135=VECTOR('',#457,0.499999999999999);
#136=VECTOR('',#460,10.);
#137=VECTOR('',#461,4.5);
#138=VECTOR('',#462,10.);
#139=VECTOR('',#467,0.499999999999999);
#140=VECTOR('',#468,1.);
#141=VECTOR('',#473,1.);
#142=VECTOR('',#478,1.);
#143=VECTOR('',#481,1.);
#144=VECTOR('',#484,0.499999999999998);
#145=VECTOR('',#487,10.);
#146=VECTOR('',#488,4.5);
#147=VECTOR('',#489,10.);
#148=VECTOR('',#494,0.499999999999998);
#149=VECTOR('',#495,1.);
#150=VECTOR('',#500,1.);
#151=VECTOR('',#511,4.5);
#152=VECTOR('',#512,0.5);
#153=VECTOR('',#513,0.500000000000001);
#154=VECTOR('',#516,0.499999999999999);
#155=VECTOR('',#517,4.5);
#156=VECTOR('',#518,0.5);
#157=VECTOR('',#521,10.);
#158=VECTOR('',#524,10.);
#159=VECTOR('',#529,4.5);
#160=VECTOR('',#530,0.500000000000001);
#161=VECTOR('',#531,0.5);
#162=VECTOR('',#534,0.499999999999999);
#163=VECTOR('',#535,10.);
#164=VECTOR('',#538,10.);
#165=VECTOR('',#539,0.5);
#166=VECTOR('',#542,4.5);
#167=CIRCLE('',#406,2.);
#168=CIRCLE('',#407,2.);
#169=CIRCLE('',#409,2.);
#170=CIRCLE('',#410,1.);
#171=CIRCLE('',#413,2.);
#172=CIRCLE('',#415,2.);
#173=CIRCLE('',#416,2.);
#174=CIRCLE('',#418,2.);
#175=CIRCLE('',#419,1.);
#176=CIRCLE('',#422,2.);
#177=CIRCLE('',#424,1.);
#178=CIRCLE('',#426,1.);
#179=CIRCLE('',#438,3.97);
#180=CIRCLE('',#439,3.97);
#181=CIRCLE('',#441,7.15);
#182=CIRCLE('',#442,7.15);
#183=VERTEX_POINT('',#563);
#184=VERTEX_POINT('',#564);
#185=VERTEX_POINT('',#566);
#186=VERTEX_POINT('',#568);
#187=VERTEX_POINT('',#572);
#188=VERTEX_POINT('',#574);
#189=VERTEX_POINT('',#576);
#190=VERTEX_POINT('',#578);
#191=VERTEX_POINT('',#581);
#192=VERTEX_POINT('',#584);
#193=VERTEX_POINT('',#588);
#194=VERTEX_POINT('',#592);
#195=VERTEX_POINT('',#593);
#196=VERTEX_POINT('',#595);
#197=VERTEX_POINT('',#597);
#198=VERTEX_POINT('',#601);
#199=VERTEX_POINT('',#603);
#200=VERTEX_POINT('',#605);
#201=VERTEX_POINT('',#607);
#202=VERTEX_POINT('',#610);
#203=VERTEX_POINT('',#613);
#204=VERTEX_POINT('',#617);
#205=VERTEX_POINT('',#621);
#206=VERTEX_POINT('',#624);
#207=VERTEX_POINT('',#627);
#208=VERTEX_POINT('',#628);
#209=VERTEX_POINT('',#633);
#210=VERTEX_POINT('',#635);
#211=VERTEX_POINT('',#644);
#212=VERTEX_POINT('',#645);
#213=VERTEX_POINT('',#650);
#214=VERTEX_POINT('',#654);
#215=VERTEX_POINT('',#661);
#216=VERTEX_POINT('',#663);
#217=EDGE_CURVE('',#183,#184,#167,.T.);
#218=EDGE_CURVE('',#184,#185,#99,.T.);
#219=EDGE_CURVE('',#185,#186,#168,.T.);
#220=EDGE_CURVE('',#186,#183,#100,.T.);
#221=EDGE_CURVE('',#185,#187,#101,.T.);
#222=EDGE_CURVE('',#188,#187,#169,.T.);
#223=EDGE_CURVE('',#188,#189,#102,.T.);
#224=EDGE_CURVE('',#189,#190,#103,.T.);
#225=EDGE_CURVE('',#190,#186,#104,.T.);
#226=EDGE_CURVE('',#191,#191,#170,.T.);
#227=EDGE_CURVE('',#192,#184,#105,.T.);
#228=EDGE_CURVE('',#187,#192,#106,.T.);
#229=EDGE_CURVE('',#192,#193,#171,.T.);
#230=EDGE_CURVE('',#193,#188,#107,.T.);
#231=EDGE_CURVE('',#194,#195,#172,.T.);
#232=EDGE_CURVE('',#195,#196,#108,.T.);
#233=EDGE_CURVE('',#196,#197,#173,.T.);
#234=EDGE_CURVE('',#197,#194,#109,.T.);
#235=EDGE_CURVE('',#196,#198,#110,.T.);
#236=EDGE_CURVE('',#199,#198,#174,.T.);
#237=EDGE_CURVE('',#199,#200,#111,.T.);
#238=EDGE_CURVE('',#200,#201,#112,.T.);
#239=EDGE_CURVE('',#201,#197,#113,.T.);
#240=EDGE_CURVE('',#202,#202,#175,.T.);
#241=EDGE_CURVE('',#203,#195,#114,.T.);
#242=EDGE_CURVE('',#198,#203,#115,.T.);
#243=EDGE_CURVE('',#203,#204,#176,.T.);
#244=EDGE_CURVE('',#204,#199,#116,.T.);
#245=EDGE_CURVE('',#205,#205,#177,.T.);
#246=EDGE_CURVE('',#206,#206,#178,.T.);
#247=EDGE_CURVE('',#207,#208,#117,.T.);
#248=EDGE_CURVE('',#201,#207,#118,.T.);
#249=EDGE_CURVE('',#208,#200,#119,.T.);
#250=EDGE_CURVE('',#209,#208,#120,.T.);
#251=EDGE_CURVE('',#210,#209,#121,.T.);
#252=EDGE_CURVE('',#207,#210,#122,.T.);
#253=EDGE_CURVE('',#194,#210,#123,.T.);
#254=EDGE_CURVE('',#209,#204,#124,.T.);
#255=EDGE_CURVE('',#211,#212,#125,.T.);
#256=EDGE_CURVE('',#211,#190,#126,.T.);
#257=EDGE_CURVE('',#189,#212,#127,.T.);
#258=EDGE_CURVE('',#213,#211,#128,.T.);
#259=EDGE_CURVE('',#183,#213,#129,.T.);
#260=EDGE_CURVE('',#214,#193,#130,.T.);
#261=EDGE_CURVE('',#212,#214,#131,.T.);
#262=EDGE_CURVE('',#213,#214,#132,.T.);
#263=EDGE_CURVE('',#215,#215,#179,.T.);
#264=EDGE_CURVE('',#216,#216,#180,.T.);
#265=EDGE_CURVE('',#208,#208,#181,.T.);
#266=EDGE_CURVE('',#211,#211,#182,.T.);
#267=ORIENTED_EDGE('',*,*,#217,.T.);
#268=ORIENTED_EDGE('',*,*,#218,.T.);
#269=ORIENTED_EDGE('',*,*,#219,.T.);
#270=ORIENTED_EDGE('',*,*,#220,.T.);
#271=ORIENTED_EDGE('',*,*,#219,.F.);
#272=ORIENTED_EDGE('',*,*,#221,.T.);
#273=ORIENTED_EDGE('',*,*,#222,.F.);
#274=ORIENTED_EDGE('',*,*,#223,.T.);
#275=ORIENTED_EDGE('',*,*,#224,.T.);
#276=ORIENTED_EDGE('',*,*,#225,.T.);
#277=ORIENTED_EDGE('',*,*,#226,.T.);
#278=ORIENTED_EDGE('',*,*,#218,.F.);
#279=ORIENTED_EDGE('',*,*,#227,.F.);
#280=ORIENTED_EDGE('',*,*,#228,.F.);
#281=ORIENTED_EDGE('',*,*,#221,.F.);
#282=ORIENTED_EDGE('',*,*,#229,.T.);
#283=ORIENTED_EDGE('',*,*,#230,.T.);
#284=ORIENTED_EDGE('',*,*,#222,.T.);
#285=ORIENTED_EDGE('',*,*,#228,.T.);
#286=ORIENTED_EDGE('',*,*,#231,.T.);
#287=ORIENTED_EDGE('',*,*,#232,.T.);
#288=ORIENTED_EDGE('',*,*,#233,.T.);
#289=ORIENTED_EDGE('',*,*,#234,.T.);
#290=ORIENTED_EDGE('',*,*,#233,.F.);
#291=ORIENTED_EDGE('',*,*,#235,.T.);
#292=ORIENTED_EDGE('',*,*,#236,.F.);
#293=ORIENTED_EDGE('',*,*,#237,.T.);
#294=ORIENTED_EDGE('',*,*,#238,.T.);
#295=ORIENTED_EDGE('',*,*,#239,.T.);
#296=ORIENTED_EDGE('',*,*,#240,.T.);
#297=ORIENTED_EDGE('',*,*,#232,.F.);
#298=ORIENTED_EDGE('',*,*,#241,.F.);
#299=ORIENTED_EDGE('',*,*,#242,.F.);
#300=ORIENTED_EDGE('',*,*,#235,.F.);
#301=ORIENTED_EDGE('',*,*,#243,.T.);
#302=ORIENTED_EDGE('',*,*,#244,.T.);
#303=ORIENTED_EDGE('',*,*,#236,.T.);
#304=ORIENTED_EDGE('',*,*,#242,.T.);
#305=ORIENTED_EDGE('',*,*,#240,.F.);
#306=ORIENTED_EDGE('',*,*,#245,.F.);
#307=ORIENTED_EDGE('',*,*,#226,.F.);
#308=ORIENTED_EDGE('',*,*,#246,.F.);
#309=ORIENTED_EDGE('',*,*,#247,.F.);
#310=ORIENTED_EDGE('',*,*,#248,.F.);
#311=ORIENTED_EDGE('',*,*,#238,.F.);
#312=ORIENTED_EDGE('',*,*,#249,.F.);
#313=ORIENTED_EDGE('',*,*,#247,.T.);
#314=ORIENTED_EDGE('',*,*,#250,.F.);
#315=ORIENTED_EDGE('',*,*,#251,.F.);
#316=ORIENTED_EDGE('',*,*,#252,.F.);
#317=ORIENTED_EDGE('',*,*,#234,.F.);
#318=ORIENTED_EDGE('',*,*,#239,.F.);
#319=ORIENTED_EDGE('',*,*,#248,.T.);
#320=ORIENTED_EDGE('',*,*,#252,.T.);
#321=ORIENTED_EDGE('',*,*,#253,.F.);
#322=ORIENTED_EDGE('',*,*,#244,.F.);
#323=ORIENTED_EDGE('',*,*,#254,.F.);
#324=ORIENTED_EDGE('',*,*,#250,.T.);
#325=ORIENTED_EDGE('',*,*,#249,.T.);
#326=ORIENTED_EDGE('',*,*,#237,.F.);
#327=ORIENTED_EDGE('',*,*,#231,.F.);
#328=ORIENTED_EDGE('',*,*,#253,.T.);
#329=ORIENTED_EDGE('',*,*,#251,.T.);
#330=ORIENTED_EDGE('',*,*,#254,.T.);
#331=ORIENTED_EDGE('',*,*,#243,.F.);
#332=ORIENTED_EDGE('',*,*,#241,.T.);
#333=ORIENTED_EDGE('',*,*,#245,.T.);
#334=ORIENTED_EDGE('',*,*,#255,.F.);
#335=ORIENTED_EDGE('',*,*,#256,.T.);
#336=ORIENTED_EDGE('',*,*,#224,.F.);
#337=ORIENTED_EDGE('',*,*,#257,.T.);
#338=ORIENTED_EDGE('',*,*,#220,.F.);
#339=ORIENTED_EDGE('',*,*,#225,.F.);
#340=ORIENTED_EDGE('',*,*,#256,.F.);
#341=ORIENTED_EDGE('',*,*,#258,.F.);
#342=ORIENTED_EDGE('',*,*,#259,.F.);
#343=ORIENTED_EDGE('',*,*,#230,.F.);
#344=ORIENTED_EDGE('',*,*,#260,.F.);
#345=ORIENTED_EDGE('',*,*,#261,.F.);
#346=ORIENTED_EDGE('',*,*,#257,.F.);
#347=ORIENTED_EDGE('',*,*,#223,.F.);
#348=ORIENTED_EDGE('',*,*,#255,.T.);
#349=ORIENTED_EDGE('',*,*,#261,.T.);
#350=ORIENTED_EDGE('',*,*,#262,.F.);
#351=ORIENTED_EDGE('',*,*,#258,.T.);
#352=ORIENTED_EDGE('',*,*,#217,.F.);
#353=ORIENTED_EDGE('',*,*,#259,.T.);
#354=ORIENTED_EDGE('',*,*,#262,.T.);
#355=ORIENTED_EDGE('',*,*,#260,.T.);
#356=ORIENTED_EDGE('',*,*,#229,.F.);
#357=ORIENTED_EDGE('',*,*,#227,.T.);
#358=ORIENTED_EDGE('',*,*,#246,.T.);
#359=ORIENTED_EDGE('',*,*,#263,.F.);
#360=ORIENTED_EDGE('',*,*,#264,.F.);
#361=ORIENTED_EDGE('',*,*,#265,.F.);
#362=ORIENTED_EDGE('',*,*,#247,.F.);
#363=ORIENTED_EDGE('',*,*,#247,.T.);
#364=ORIENTED_EDGE('',*,*,#266,.F.);
#365=ORIENTED_EDGE('',*,*,#255,.T.);
#366=ORIENTED_EDGE('',*,*,#255,.F.);
#367=ORIENTED_EDGE('',*,*,#266,.T.);
#368=ORIENTED_EDGE('',*,*,#264,.T.);
#369=ORIENTED_EDGE('',*,*,#265,.T.);
#370=ORIENTED_EDGE('',*,*,#263,.T.);
#371=CYLINDRICAL_SURFACE('',#405,2.);
#372=CYLINDRICAL_SURFACE('',#412,2.);
#373=CYLINDRICAL_SURFACE('',#414,2.);
#374=CYLINDRICAL_SURFACE('',#421,2.);
#375=CYLINDRICAL_SURFACE('',#423,1.);
#376=CYLINDRICAL_SURFACE('',#425,1.);
#377=CYLINDRICAL_SURFACE('',#437,3.97);
#378=CYLINDRICAL_SURFACE('',#440,7.15);
#379=ADVANCED_FACE('',(#41),#371,.T.);
#380=ADVANCED_FACE('',(#42,#15),#25,.T.);
#381=ADVANCED_FACE('',(#43),#26,.T.);
#382=ADVANCED_FACE('',(#44),#372,.T.);
#383=ADVANCED_FACE('',(#45),#373,.T.);
#384=ADVANCED_FACE('',(#46,#16),#27,.T.);
#385=ADVANCED_FACE('',(#47),#28,.T.);
#386=ADVANCED_FACE('',(#48),#374,.T.);
#387=ADVANCED_FACE('',(#49,#17),#375,.F.);
#388=ADVANCED_FACE('',(#50,#18),#376,.F.);
#389=ADVANCED_FACE('',(#51),#29,.T.);
#390=ADVANCED_FACE('',(#52),#30,.T.);
#391=ADVANCED_FACE('',(#53),#31,.T.);
#392=ADVANCED_FACE('',(#54),#32,.T.);
#393=ADVANCED_FACE('',(#55,#19),#33,.T.);
#394=ADVANCED_FACE('',(#56),#34,.T.);
#395=ADVANCED_FACE('',(#57),#35,.T.);
#396=ADVANCED_FACE('',(#58),#36,.T.);
#397=ADVANCED_FACE('',(#59),#37,.T.);
#398=ADVANCED_FACE('',(#60,#20),#38,.T.);
#399=ADVANCED_FACE('',(#61,#21),#377,.F.);
#400=ADVANCED_FACE('',(#62,#22),#378,.T.);
#401=ADVANCED_FACE('',(#63,#23),#39,.F.);
#402=ADVANCED_FACE('',(#64,#24),#40,.T.);
#403=CLOSED_SHELL('',(#379,#380,#381,#382,#383,#384,#385,#386,#387,#388,
#389,#390,#391,#392,#393,#394,#395,#396,#397,#398,#399,#400,#401,#402));
#404=AXIS2_PLACEMENT_3D('placement',#561,#445,#446);
#405=AXIS2_PLACEMENT_3D('',#562,#447,#448);
#406=AXIS2_PLACEMENT_3D('',#565,#449,#450);
#407=AXIS2_PLACEMENT_3D('',#569,#452,#453);
#408=AXIS2_PLACEMENT_3D('',#571,#455,#456);
#409=AXIS2_PLACEMENT_3D('',#575,#458,#459);
#410=AXIS2_PLACEMENT_3D('',#582,#463,#464);
#411=AXIS2_PLACEMENT_3D('',#583,#465,#466);
#412=AXIS2_PLACEMENT_3D('',#587,#469,#470);
#413=AXIS2_PLACEMENT_3D('',#589,#471,#472);
#414=AXIS2_PLACEMENT_3D('',#591,#474,#475);
#415=AXIS2_PLACEMENT_3D('',#594,#476,#477);
#416=AXIS2_PLACEMENT_3D('',#598,#479,#480);
#417=AXIS2_PLACEMENT_3D('',#600,#482,#483);
#418=AXIS2_PLACEMENT_3D('',#604,#485,#486);
#419=AXIS2_PLACEMENT_3D('',#611,#490,#491);
#420=AXIS2_PLACEMENT_3D('',#612,#492,#493);
#421=AXIS2_PLACEMENT_3D('',#616,#496,#497);
#422=AXIS2_PLACEMENT_3D('',#618,#498,#499);
#423=AXIS2_PLACEMENT_3D('',#620,#501,#502);
#424=AXIS2_PLACEMENT_3D('',#622,#503,#504);
#425=AXIS2_PLACEMENT_3D('',#623,#505,#506);
#426=AXIS2_PLACEMENT_3D('',#625,#507,#508);
#427=AXIS2_PLACEMENT_3D('',#626,#509,#510);
#428=AXIS2_PLACEMENT_3D('',#632,#514,#515);
#429=AXIS2_PLACEMENT_3D('',#638,#519,#520);
#430=AXIS2_PLACEMENT_3D('',#640,#522,#523);
#431=AXIS2_PLACEMENT_3D('',#642,#525,#526);
#432=AXIS2_PLACEMENT_3D('',#643,#527,#528);
#433=AXIS2_PLACEMENT_3D('',#649,#532,#533);
#434=AXIS2_PLACEMENT_3D('',#653,#536,#537);
#435=AXIS2_PLACEMENT_3D('',#657,#540,#541);
#436=AXIS2_PLACEMENT_3D('',#659,#543,#544);
#437=AXIS2_PLACEMENT_3D('',#660,#545,#546);
#438=AXIS2_PLACEMENT_3D('',#662,#547,#548);
#439=AXIS2_PLACEMENT_3D('',#664,#549,#550);
#440=AXIS2_PLACEMENT_3D('',#665,#551,#552);
#441=AXIS2_PLACEMENT_3D('',#666,#553,#554);
#442=AXIS2_PLACEMENT_3D('',#667,#555,#556);
#443=AXIS2_PLACEMENT_3D('',#668,#557,#558);
#444=AXIS2_PLACEMENT_3D('',#669,#559,#560);
#445=DIRECTION('axis',(0.,0.,1.));
#446=DIRECTION('refdir',(1.,0.,0.));
#447=DIRECTION('center_axis',(0.,0.,1.));
#448=DIRECTION('ref_axis',(-0.707106781186548,0.707106781186547,0.));
#449=DIRECTION('center_axis',(0.,0.,-1.));
#450=DIRECTION('ref_axis',(-0.707106781186548,0.707106781186547,0.));
#451=DIRECTION('',(0.,0.,-1.));
#452=DIRECTION('center_axis',(0.,0.,1.));
#453=DIRECTION('ref_axis',(-0.707106781186548,0.707106781186547,0.));
#454=DIRECTION('',(0.,0.,1.));
#455=DIRECTION('center_axis',(0.,0.,-1.));
#456=DIRECTION('ref_axis',(-1.,0.,0.));
#457=DIRECTION('',(1.,-4.93432455388958E-16,0.));
#458=DIRECTION('center_axis',(0.,0.,1.));
#459=DIRECTION('ref_axis',(0.707106781186548,0.707106781186547,0.));
#460=DIRECTION('',(-1.38777878078144E-16,-1.,0.));
#461=DIRECTION('',(-1.,4.93432455388958E-16,0.));
#462=DIRECTION('',(1.41854920901235E-16,1.,0.));
#463=DIRECTION('center_axis',(0.,0.,1.));
#464=DIRECTION('ref_axis',(-1.,0.,0.));
#465=DIRECTION('center_axis',(4.93432455388958E-16,1.,0.));
#466=DIRECTION('ref_axis',(-1.,3.5527136788005E-16,0.));
#467=DIRECTION('',(-1.,4.93432455388958E-16,0.));
#468=DIRECTION('',(0.,0.,1.));
#469=DIRECTION('center_axis',(0.,0.,1.));
#470=DIRECTION('ref_axis',(0.707106781186548,0.707106781186547,0.));
#471=DIRECTION('center_axis',(0.,0.,-1.));
#472=DIRECTION('ref_axis',(0.707106781186548,0.707106781186547,0.));
#473=DIRECTION('',(0.,0.,-1.));
#474=DIRECTION('center_axis',(0.,0.,1.));
#475=DIRECTION('ref_axis',(-0.707106781186549,0.707106781186546,0.));
#476=DIRECTION('center_axis',(0.,0.,-1.));
#477=DIRECTION('ref_axis',(-0.707106781186549,0.707106781186546,0.));
#478=DIRECTION('',(0.,0.,-1.));
#479=DIRECTION('center_axis',(0.,0.,1.));
#480=DIRECTION('ref_axis',(-0.707106781186549,0.707106781186546,0.));
#481=DIRECTION('',(0.,0.,1.));
#482=DIRECTION('center_axis',(0.,0.,-1.));
#483=DIRECTION('ref_axis',(-1.,0.,0.));
#484=DIRECTION('',(1.,0.,0.));
#485=DIRECTION('center_axis',(0.,0.,1.));
#486=DIRECTION('ref_axis',(0.707106781186546,0.707106781186549,0.));
#487=DIRECTION('',(0.,-1.,0.));
#488=DIRECTION('',(-1.,0.,0.));
#489=DIRECTION('',(0.,1.,0.));
#490=DIRECTION('center_axis',(0.,0.,1.));
#491=DIRECTION('ref_axis',(-1.,0.,0.));
#492=DIRECTION('center_axis',(0.,1.,0.));
#493=DIRECTION('ref_axis',(-1.,0.,0.));
#494=DIRECTION('',(-1.,0.,0.));
#495=DIRECTION('',(0.,0.,1.));
#496=DIRECTION('center_axis',(0.,0.,1.));
#497=DIRECTION('ref_axis',(0.707106781186546,0.707106781186549,0.));
#498=DIRECTION('center_axis',(0.,0.,-1.));
#499=DIRECTION('ref_axis',(0.707106781186546,0.707106781186549,0.));
#500=DIRECTION('',(0.,0.,-1.));
#501=DIRECTION('center_axis',(0.,0.,-1.));
#502=DIRECTION('ref_axis',(-1.,0.,0.));
#503=DIRECTION('center_axis',(0.,0.,-1.));
#504=DIRECTION('ref_axis',(-1.,0.,0.));
#505=DIRECTION('center_axis',(0.,0.,-1.));
#506=DIRECTION('ref_axis',(-1.,0.,0.));
#507=DIRECTION('center_axis',(0.,0.,-1.));
#508=DIRECTION('ref_axis',(-1.,0.,0.));
#509=DIRECTION('center_axis',(0.,-1.,0.));
#510=DIRECTION('ref_axis',(1.,0.,0.));
#511=DIRECTION('',(1.,0.,0.));
#512=DIRECTION('',(0.,0.,1.));
#513=DIRECTION('',(0.,0.,-1.));
#514=DIRECTION('center_axis',(0.,-1.,0.));
#515=DIRECTION('ref_axis',(1.,0.,0.));
#516=DIRECTION('',(0.,0.,-1.));
#517=DIRECTION('',(1.,0.,0.));
#518=DIRECTION('',(0.,0.,1.));
#519=DIRECTION('center_axis',(-1.,0.,0.));
#520=DIRECTION('ref_axis',(0.,-1.,0.));
#521=DIRECTION('',(0.,-1.,0.));
#522=DIRECTION('center_axis',(1.,0.,0.));
#523=DIRECTION('ref_axis',(0.,1.,0.));
#524=DIRECTION('',(0.,1.,0.));
#525=DIRECTION('center_axis',(0.,0.,1.));
#526=DIRECTION('ref_axis',(1.,0.,0.));
#527=DIRECTION('center_axis',(-4.93432455388958E-16,-1.,0.));
#528=DIRECTION('ref_axis',(1.,-5.32907051820075E-16,0.));
#529=DIRECTION('',(1.,0.,0.));
#530=DIRECTION('',(0.,0.,-1.));
#531=DIRECTION('',(0.,0.,1.));
#532=DIRECTION('center_axis',(-1.,1.41854920901235E-16,0.));
#533=DIRECTION('ref_axis',(-1.41854920901235E-16,-1.,0.));
#534=DIRECTION('',(0.,0.,-1.));
#535=DIRECTION('',(-1.41854920901235E-16,-1.,0.));
#536=DIRECTION('center_axis',(1.,-1.38777878078144E-16,0.));
#537=DIRECTION('ref_axis',(1.77635683940025E-16,1.,0.));
#538=DIRECTION('',(1.38777878078144E-16,1.,0.));
#539=DIRECTION('',(0.,0.,1.));
#540=DIRECTION('center_axis',(-4.93432455388958E-16,-1.,0.));
#541=DIRECTION('ref_axis',(1.,-5.32907051820075E-16,0.));
#542=DIRECTION('',(1.,-4.93432455388958E-16,0.));
#543=DIRECTION('center_axis',(0.,0.,1.));
#544=DIRECTION('ref_axis',(1.,0.,0.));
#545=DIRECTION('center_axis',(1.,0.,0.));
#546=DIRECTION('ref_axis',(0.,-1.,0.));
#547=DIRECTION('center_axis',(-1.,0.,0.));
#548=DIRECTION('ref_axis',(0.,-1.,0.));
#549=DIRECTION('center_axis',(1.,0.,0.));
#550=DIRECTION('ref_axis',(0.,-1.,0.));
#551=DIRECTION('center_axis',(1.,0.,0.));
#552=DIRECTION('ref_axis',(0.,-1.,0.));
#553=DIRECTION('center_axis',(1.,0.,0.));
#554=DIRECTION('ref_axis',(0.,-1.,0.));
#555=DIRECTION('center_axis',(-1.,0.,0.));
#556=DIRECTION('ref_axis',(0.,-1.,0.));
#557=DIRECTION('center_axis',(1.,0.,0.));
#558=DIRECTION('ref_axis',(0.,0.,-1.));
#559=DIRECTION('center_axis',(1.,0.,0.));
#560=DIRECTION('ref_axis',(0.,0.,-1.));
#561=CARTESIAN_POINT('',(0.,0.,0.));
#562=CARTESIAN_POINT('Origin',(2.,17.15,0.));
#563=CARTESIAN_POINT('',(1.41854920901235E-15,17.15,0.5));
#564=CARTESIAN_POINT('',(2.,19.15,0.5));
#565=CARTESIAN_POINT('Origin',(2.,17.15,0.5));
#566=CARTESIAN_POINT('',(2.,19.15,-0.5));
#567=CARTESIAN_POINT('',(2.,19.15,0.));
#568=CARTESIAN_POINT('',(1.41854920901235E-15,17.15,-0.5));
#569=CARTESIAN_POINT('Origin',(2.,17.15,-0.5));
#570=CARTESIAN_POINT('',(1.38777878078145E-15,17.15,0.));
#571=CARTESIAN_POINT('Origin',(2.25,13.15,-0.5));
#572=CARTESIAN_POINT('',(2.5,19.15,-0.5));
#573=CARTESIAN_POINT('',(4.5,19.15,-0.5));
#574=CARTESIAN_POINT('',(4.5,17.15,-0.5));
#575=CARTESIAN_POINT('Origin',(2.5,17.15,-0.5));
#576=CARTESIAN_POINT('',(4.5,7.15,-0.5));
#577=CARTESIAN_POINT('',(4.5,7.15,-0.5));
#578=CARTESIAN_POINT('',(0.,7.15,-0.5));
#579=CARTESIAN_POINT('',(0.,7.15,-0.5));
#580=CARTESIAN_POINT('',(1.70225905081482E-15,19.15,-0.5));
#581=CARTESIAN_POINT('',(3.25,16.9,-0.5));
#582=CARTESIAN_POINT('Origin',(2.25,16.9,-0.5));
#583=CARTESIAN_POINT('Origin',(4.5,19.15,0.));
#584=CARTESIAN_POINT('',(2.5,19.15,0.5));
#585=CARTESIAN_POINT('',(4.5,19.15,0.5));
#586=CARTESIAN_POINT('',(2.5,19.15,0.));
#587=CARTESIAN_POINT('Origin',(2.5,17.15,0.));
#588=CARTESIAN_POINT('',(4.5,17.15,0.5));
#589=CARTESIAN_POINT('Origin',(2.5,17.15,0.5));
#590=CARTESIAN_POINT('',(4.5,17.15,0.));
#591=CARTESIAN_POINT('Origin',(48.5,17.15,0.));
#592=CARTESIAN_POINT('',(46.5,17.15,0.5));
#593=CARTESIAN_POINT('',(48.5,19.15,0.5));
#594=CARTESIAN_POINT('Origin',(48.5,17.15,0.5));
#595=CARTESIAN_POINT('',(48.5,19.15,-0.5));
#596=CARTESIAN_POINT('',(48.5,19.15,0.));
#597=CARTESIAN_POINT('',(46.5,17.15,-0.5));
#598=CARTESIAN_POINT('Origin',(48.5,17.15,-0.5));
#599=CARTESIAN_POINT('',(46.5,17.15,0.));
#600=CARTESIAN_POINT('Origin',(48.75,13.15,-0.5));
#601=CARTESIAN_POINT('',(49.,19.15,-0.5));
#602=CARTESIAN_POINT('',(51.,19.15,-0.5));
#603=CARTESIAN_POINT('',(51.,17.15,-0.5));
#604=CARTESIAN_POINT('Origin',(49.,17.15,-0.5));
#605=CARTESIAN_POINT('',(51.,7.15,-0.5));
#606=CARTESIAN_POINT('',(51.,7.15,-0.5));
#607=CARTESIAN_POINT('',(46.5,7.15,-0.5));
#608=CARTESIAN_POINT('',(46.5,7.15,-0.5));
#609=CARTESIAN_POINT('',(46.5,19.15,-0.5));
#610=CARTESIAN_POINT('',(49.75,16.9,-0.5));
#611=CARTESIAN_POINT('Origin',(48.75,16.9,-0.5));
#612=CARTESIAN_POINT('Origin',(51.,19.15,0.));
#613=CARTESIAN_POINT('',(49.,19.15,0.5));
#614=CARTESIAN_POINT('',(51.,19.15,0.5));
#615=CARTESIAN_POINT('',(49.,19.15,0.));
#616=CARTESIAN_POINT('Origin',(49.,17.15,0.));
#617=CARTESIAN_POINT('',(51.,17.15,0.5));
#618=CARTESIAN_POINT('Origin',(49.,17.15,0.5));
#619=CARTESIAN_POINT('',(51.,17.15,0.));
#620=CARTESIAN_POINT('Origin',(48.75,16.9,0.5));
#621=CARTESIAN_POINT('',(49.75,16.9,0.5));
#622=CARTESIAN_POINT('Origin',(48.75,16.9,0.5));
#623=CARTESIAN_POINT('Origin',(2.25,16.9,0.5));
#624=CARTESIAN_POINT('',(3.25,16.9,0.5));
#625=CARTESIAN_POINT('Origin',(2.25,16.9,0.5));
#626=CARTESIAN_POINT('Origin',(46.5,7.15,0.));
#627=CARTESIAN_POINT('',(46.5,7.15,0.));
#628=CARTESIAN_POINT('',(51.,7.15,8.75622461390358E-16));
#629=CARTESIAN_POINT('',(0.,7.15,0.));
#630=CARTESIAN_POINT('',(46.5,7.15,0.));
#631=CARTESIAN_POINT('',(51.,7.15,0.));
#632=CARTESIAN_POINT('Origin',(46.5,7.15,0.));
#633=CARTESIAN_POINT('',(51.,7.15,0.5));
#634=CARTESIAN_POINT('',(51.,7.15,0.));
#635=CARTESIAN_POINT('',(46.5,7.15,0.5));
#636=CARTESIAN_POINT('',(46.5,7.15,0.5));
#637=CARTESIAN_POINT('',(46.5,7.15,0.));
#638=CARTESIAN_POINT('Origin',(46.5,19.15,0.));
#639=CARTESIAN_POINT('',(46.5,19.15,0.5));
#640=CARTESIAN_POINT('Origin',(51.,7.15,0.));
#641=CARTESIAN_POINT('',(51.,7.15,0.5));
#642=CARTESIAN_POINT('Origin',(48.75,13.15,0.5));
#643=CARTESIAN_POINT('Origin',(0.,7.15,0.));
#644=CARTESIAN_POINT('',(0.,7.15,8.75622461390358E-16));
#645=CARTESIAN_POINT('',(4.5,7.15,0.));
#646=CARTESIAN_POINT('',(0.,7.15,0.));
#647=CARTESIAN_POINT('',(0.,7.15,0.));
#648=CARTESIAN_POINT('',(4.5,7.15,0.));
#649=CARTESIAN_POINT('Origin',(1.70225905081482E-15,19.15,0.));
#650=CARTESIAN_POINT('',(0.,7.15,0.5));
#651=CARTESIAN_POINT('',(0.,7.15,0.));
#652=CARTESIAN_POINT('',(1.70225905081482E-15,19.15,0.5));
#653=CARTESIAN_POINT('Origin',(4.5,7.15,0.));
#654=CARTESIAN_POINT('',(4.5,7.15,0.5));
#655=CARTESIAN_POINT('',(4.5,7.15,0.5));
#656=CARTESIAN_POINT('',(4.5,7.15,0.));
#657=CARTESIAN_POINT('Origin',(0.,7.15,0.));
#658=CARTESIAN_POINT('',(0.,7.15,0.5));
#659=CARTESIAN_POINT('Origin',(2.25,13.15,0.5));
#660=CARTESIAN_POINT('Origin',(0.,0.,0.));
#661=CARTESIAN_POINT('',(51.,3.97,4.86184779261499E-16));
#662=CARTESIAN_POINT('Origin',(51.,0.,0.));
#663=CARTESIAN_POINT('',(0.,3.97,4.86184779261499E-16));
#664=CARTESIAN_POINT('Origin',(0.,0.,0.));
#665=CARTESIAN_POINT('Origin',(0.,0.,0.));
#666=CARTESIAN_POINT('Origin',(51.,0.,0.));
#667=CARTESIAN_POINT('Origin',(0.,0.,0.));
#668=CARTESIAN_POINT('Origin',(0.,-5.90555030115936E-16,0.));
#669=CARTESIAN_POINT('Origin',(51.,-5.90555030115936E-16,0.));
#670=UNCERTAINTY_MEASURE_WITH_UNIT(LENGTH_MEASURE(0.01),#674,
'DISTANCE_ACCURACY_VALUE',
'Maximum model space distance between geometric entities at asserted c
onnectivities');
#671=UNCERTAINTY_MEASURE_WITH_UNIT(LENGTH_MEASURE(1.E-6),#674,
'DISTANCE_ACCURACY_VALUE',
'Maximum model space distance between geometric entities at asserted c
onnectivities');
#672=(
GEOMETRIC_REPRESENTATION_CONTEXT(3)
GLOBAL_UNCERTAINTY_ASSIGNED_CONTEXT((#670))
GLOBAL_UNIT_ASSIGNED_CONTEXT((#674,#677,#675))
REPRESENTATION_CONTEXT('','3D')
);
#673=(
GEOMETRIC_REPRESENTATION_CONTEXT(3)
GLOBAL_UNCERTAINTY_ASSIGNED_CONTEXT((#671))
GLOBAL_UNIT_ASSIGNED_CONTEXT((#674,#677,#675))
REPRESENTATION_CONTEXT('','3D')
);
#674=(
LENGTH_UNIT()
NAMED_UNIT(*)
SI_UNIT(.MILLI.,.METRE.)
);
#675=(
NAMED_UNIT(*)
SI_UNIT($,.STERADIAN.)
SOLID_ANGLE_UNIT()
);
#676=DIMENSIONAL_EXPONENTS(0.,0.,0.,0.,0.,0.,0.);
#677=(
CONVERSION_BASED_UNIT('degree',#679)
NAMED_UNIT(#676)
PLANE_ANGLE_UNIT()
);
#678=(
NAMED_UNIT(*)
PLANE_ANGLE_UNIT()
SI_UNIT($,.RADIAN.)
);
#679=PLANE_ANGLE_MEASURE_WITH_UNIT(PLANE_ANGLE_MEASURE(0.01745329252),#678);
#680=SHAPE_DEFINITION_REPRESENTATION(#681,#682);
#681=PRODUCT_DEFINITION_SHAPE('',$,#684);
#682=SHAPE_REPRESENTATION('',(#404),#672);
#683=PRODUCT_DEFINITION_CONTEXT('part definition',#688,'design');
#684=PRODUCT_DEFINITION('EWT25','EWT25',#685,#683);
#685=PRODUCT_DEFINITION_FORMATION('',$,#690);
#686=PRODUCT_RELATED_PRODUCT_CATEGORY('EWT25','EWT25',(#690));
#687=APPLICATION_PROTOCOL_DEFINITION('international standard',
'automotive_design',2009,#688);
#688=APPLICATION_CONTEXT(
'Core Data for Automotive Mechanical Design Process');
#689=PRODUCT_CONTEXT('part definition',#688,'mechanical');
#690=PRODUCT('EWT25','EWT25',$,(#689));
#691=PRESENTATION_STYLE_ASSIGNMENT((#692));
#692=SURFACE_STYLE_USAGE(.BOTH.,#693);
#693=SURFACE_SIDE_STYLE('',(#694));
#694=SURFACE_STYLE_FILL_AREA(#695);
#695=FILL_AREA_STYLE('',(#696));
#696=FILL_AREA_STYLE_COLOUR('',#697);
#697=COLOUR_RGB('',0.749019607843137,0.749019607843137,0.749019607843137);
ENDSEC;
END-ISO-10303-21;
