ISO-10303-21;
HEADER;
/* Generated by software containing ST-Developer
 * from STEP Tools, Inc. (www.steptools.com) 
 */

FILE_DESCRIPTION(
/* description */ (''),
/* implementation_level */ '2;1');

FILE_NAME(
/* name */ 
'C:\\Users\\mulla\\Documents\\SEI Models\\Inventor Files\\HCS\\3D\\HCS
3920_L300_stp.stp',
/* time_stamp */ '2019-07-22T21:50:54-04:00',
/* author */ ('mulla'),
/* organization */ (''),
/* preprocessor_version */ 'ST-DEVELOPER v16.1',
/* originating_system */ 'Autodesk Inventor 2016',
/* authorisation */ '');

FILE_SCHEMA (('AUTOMOTIVE_DESIGN { 1 0 10303 214 3 1 1 }'));
ENDSEC;

DATA;
#10=MECHANICAL_DESIGN_GEOMETRIC_PRESENTATION_REPRESENTATION('',(#360,#362,
#361,#355,#354,#352,#356,#353,#358,#357,#359,#375,#376,#368,#369,#372,#371,
#373,#374,#370,#363,#364,#365,#367,#366),#629);
#11=CIRCLE('',#420,5.87251105003449);
#12=CIRCLE('',#421,5.87251105003449);
#13=CYLINDRICAL_SURFACE('',#419,5.87251105003449);
#14=SHAPE_REPRESENTATION_RELATIONSHIP('SRR','None',#638,#15);
#15=ADVANCED_BREP_SHAPE_REPRESENTATION('',(#16,#17,#18),#628);
#16=MANIFOLD_SOLID_BREP('Solid1',#399);
#17=MANIFOLD_SOLID_BREP('Solid1',#400);
#18=MANIFOLD_SOLID_BREP('Solid2',#401);
#19=FACE_OUTER_BOUND('',#41,.T.);
#20=FACE_OUTER_BOUND('',#42,.T.);
#21=FACE_OUTER_BOUND('',#43,.T.);
#22=FACE_OUTER_BOUND('',#44,.T.);
#23=FACE_OUTER_BOUND('',#45,.T.);
#24=FACE_OUTER_BOUND('',#46,.T.);
#25=FACE_OUTER_BOUND('',#47,.T.);
#26=FACE_OUTER_BOUND('',#48,.T.);
#27=FACE_OUTER_BOUND('',#49,.T.);
#28=FACE_OUTER_BOUND('',#50,.T.);
#29=FACE_OUTER_BOUND('',#51,.T.);
#30=FACE_OUTER_BOUND('',#52,.T.);
#31=FACE_OUTER_BOUND('',#53,.T.);
#32=FACE_OUTER_BOUND('',#54,.T.);
#33=FACE_OUTER_BOUND('',#55,.T.);
#34=FACE_OUTER_BOUND('',#56,.T.);
#35=FACE_OUTER_BOUND('',#57,.T.);
#36=FACE_OUTER_BOUND('',#58,.T.);
#37=FACE_OUTER_BOUND('',#59,.T.);
#38=FACE_OUTER_BOUND('',#60,.T.);
#39=FACE_OUTER_BOUND('',#61,.T.);
#40=FACE_OUTER_BOUND('',#62,.T.);
#41=EDGE_LOOP('',(#235,#236,#237,#238));
#42=EDGE_LOOP('',(#239,#240,#241,#242));
#43=EDGE_LOOP('',(#243,#244,#245,#246));
#44=EDGE_LOOP('',(#247,#248,#249,#250));
#45=EDGE_LOOP('',(#251,#252,#253,#254));
#46=EDGE_LOOP('',(#255,#256,#257,#258));
#47=EDGE_LOOP('',(#259,#260,#261,#262,#263,#264));
#48=EDGE_LOOP('',(#265,#266,#267,#268,#269,#270));
#49=EDGE_LOOP('',(#271,#272,#273,#274));
#50=EDGE_LOOP('',(#275,#276,#277,#278));
#51=EDGE_LOOP('',(#279,#280,#281,#282));
#52=EDGE_LOOP('',(#283,#284,#285,#286));
#53=EDGE_LOOP('',(#287,#288,#289,#290));
#54=EDGE_LOOP('',(#291,#292,#293,#294));
#55=EDGE_LOOP('',(#295,#296,#297,#298,#299,#300));
#56=EDGE_LOOP('',(#301,#302,#303,#304,#305,#306));
#57=EDGE_LOOP('',(#307,#308,#309,#310));
#58=EDGE_LOOP('',(#311,#312,#313,#314));
#59=EDGE_LOOP('',(#315,#316,#317,#318));
#60=EDGE_LOOP('',(#319,#320,#321,#322));
#61=EDGE_LOOP('',(#323,#324,#325,#326));
#62=EDGE_LOOP('',(#327,#328,#329,#330));
#63=LINE('',#527,#109);
#64=LINE('',#529,#110);
#65=LINE('',#531,#111);
#66=LINE('',#532,#112);
#67=LINE('',#536,#113);
#68=LINE('',#538,#114);
#69=LINE('',#540,#115);
#70=LINE('',#541,#116);
#71=LINE('',#543,#117);
#72=LINE('',#544,#118);
#73=LINE('',#547,#119);
#74=LINE('',#549,#120);
#75=LINE('',#550,#121);
#76=LINE('',#553,#122);
#77=LINE('',#555,#123);
#78=LINE('',#556,#124);
#79=LINE('',#558,#125);
#80=LINE('',#559,#126);
#81=LINE('',#565,#127);
#82=LINE('',#567,#128);
#83=LINE('',#569,#129);
#84=LINE('',#570,#130);
#85=LINE('',#573,#131);
#86=LINE('',#575,#132);
#87=LINE('',#576,#133);
#88=LINE('',#579,#134);
#89=LINE('',#581,#135);
#90=LINE('',#582,#136);
#91=LINE('',#586,#137);
#92=LINE('',#588,#138);
#93=LINE('',#590,#139);
#94=LINE('',#591,#140);
#95=LINE('',#593,#141);
#96=LINE('',#594,#142);
#97=LINE('',#596,#143);
#98=LINE('',#597,#144);
#99=LINE('',#605,#145);
#100=LINE('',#608,#146);
#101=LINE('',#611,#147);
#102=LINE('',#613,#148);
#103=LINE('',#614,#149);
#104=LINE('',#617,#150);
#105=LINE('',#618,#151);
#106=LINE('',#621,#152);
#107=LINE('',#622,#153);
#108=LINE('',#624,#154);
#109=VECTOR('',#431,1.8);
#110=VECTOR('',#432,5.2);
#111=VECTOR('',#433,1.8);
#112=VECTOR('',#434,5.2);
#113=VECTOR('',#437,1.8);
#114=VECTOR('',#438,5.2);
#115=VECTOR('',#439,1.8);
#116=VECTOR('',#440,5.2);
#117=VECTOR('',#443,1.42);
#118=VECTOR('',#444,1.42);
#119=VECTOR('',#447,0.87172339781055);
#120=VECTOR('',#448,0.87172339781055);
#121=VECTOR('',#449,5.2);
#122=VECTOR('',#452,1.42);
#123=VECTOR('',#453,1.42);
#124=VECTOR('',#454,5.2);
#125=VECTOR('',#457,0.87172339781055);
#126=VECTOR('',#458,0.87172339781055);
#127=VECTOR('',#465,1.42);
#128=VECTOR('',#466,5.2);
#129=VECTOR('',#467,1.42);
#130=VECTOR('',#468,5.2);
#131=VECTOR('',#471,1.8);
#132=VECTOR('',#472,1.8);
#133=VECTOR('',#473,5.2);
#134=VECTOR('',#476,1.8);
#135=VECTOR('',#477,5.2);
#136=VECTOR('',#478,1.8);
#137=VECTOR('',#481,1.42);
#138=VECTOR('',#482,5.2);
#139=VECTOR('',#483,1.42);
#140=VECTOR('',#484,5.2);
#141=VECTOR('',#487,0.87172339781055);
#142=VECTOR('',#488,0.87172339781055);
#143=VECTOR('',#491,0.87172339781055);
#144=VECTOR('',#492,0.87172339781055);
#145=VECTOR('',#501,1.42);
#146=VECTOR('',#504,1.42);
#147=VECTOR('',#507,5.2);
#148=VECTOR('',#508,5.17185199325788);
#149=VECTOR('',#509,5.2);
#150=VECTOR('',#512,5.2);
#151=VECTOR('',#513,1.42);
#152=VECTOR('',#516,1.42);
#153=VECTOR('',#517,5.2);
#154=VECTOR('',#520,5.17185199325788);
#155=VERTEX_POINT('',#525);
#156=VERTEX_POINT('',#526);
#157=VERTEX_POINT('',#528);
#158=VERTEX_POINT('',#530);
#159=VERTEX_POINT('',#534);
#160=VERTEX_POINT('',#535);
#161=VERTEX_POINT('',#537);
#162=VERTEX_POINT('',#539);
#163=VERTEX_POINT('',#546);
#164=VERTEX_POINT('',#548);
#165=VERTEX_POINT('',#552);
#166=VERTEX_POINT('',#554);
#167=VERTEX_POINT('',#563);
#168=VERTEX_POINT('',#564);
#169=VERTEX_POINT('',#566);
#170=VERTEX_POINT('',#568);
#171=VERTEX_POINT('',#572);
#172=VERTEX_POINT('',#574);
#173=VERTEX_POINT('',#578);
#174=VERTEX_POINT('',#580);
#175=VERTEX_POINT('',#584);
#176=VERTEX_POINT('',#585);
#177=VERTEX_POINT('',#587);
#178=VERTEX_POINT('',#589);
#179=VERTEX_POINT('',#601);
#180=VERTEX_POINT('',#602);
#181=VERTEX_POINT('',#604);
#182=VERTEX_POINT('',#606);
#183=VERTEX_POINT('',#610);
#184=VERTEX_POINT('',#612);
#185=VERTEX_POINT('',#616);
#186=VERTEX_POINT('',#620);
#187=EDGE_CURVE('',#155,#156,#63,.T.);
#188=EDGE_CURVE('',#156,#157,#64,.T.);
#189=EDGE_CURVE('',#158,#157,#65,.T.);
#190=EDGE_CURVE('',#155,#158,#66,.T.);
#191=EDGE_CURVE('',#159,#160,#67,.T.);
#192=EDGE_CURVE('',#160,#161,#68,.T.);
#193=EDGE_CURVE('',#162,#161,#69,.T.);
#194=EDGE_CURVE('',#159,#162,#70,.T.);
#195=EDGE_CURVE('',#156,#159,#71,.T.);
#196=EDGE_CURVE('',#157,#162,#72,.T.);
#197=EDGE_CURVE('',#163,#155,#73,.T.);
#198=EDGE_CURVE('',#164,#158,#74,.T.);
#199=EDGE_CURVE('',#163,#164,#75,.T.);
#200=EDGE_CURVE('',#165,#163,#76,.T.);
#201=EDGE_CURVE('',#166,#164,#77,.T.);
#202=EDGE_CURVE('',#165,#166,#78,.T.);
#203=EDGE_CURVE('',#160,#165,#79,.T.);
#204=EDGE_CURVE('',#161,#166,#80,.T.);
#205=EDGE_CURVE('',#167,#168,#81,.T.);
#206=EDGE_CURVE('',#168,#169,#82,.T.);
#207=EDGE_CURVE('',#170,#169,#83,.T.);
#208=EDGE_CURVE('',#167,#170,#84,.T.);
#209=EDGE_CURVE('',#171,#167,#85,.T.);
#210=EDGE_CURVE('',#172,#170,#86,.T.);
#211=EDGE_CURVE('',#171,#172,#87,.T.);
#212=EDGE_CURVE('',#168,#173,#88,.T.);
#213=EDGE_CURVE('',#173,#174,#89,.T.);
#214=EDGE_CURVE('',#169,#174,#90,.T.);
#215=EDGE_CURVE('',#175,#176,#91,.T.);
#216=EDGE_CURVE('',#176,#177,#92,.T.);
#217=EDGE_CURVE('',#178,#177,#93,.T.);
#218=EDGE_CURVE('',#175,#178,#94,.T.);
#219=EDGE_CURVE('',#173,#175,#95,.T.);
#220=EDGE_CURVE('',#174,#178,#96,.T.);
#221=EDGE_CURVE('',#176,#171,#97,.T.);
#222=EDGE_CURVE('',#177,#172,#98,.T.);
#223=EDGE_CURVE('',#179,#180,#11,.T.);
#224=EDGE_CURVE('',#181,#179,#99,.T.);
#225=EDGE_CURVE('',#182,#181,#12,.T.);
#226=EDGE_CURVE('',#180,#182,#100,.T.);
#227=EDGE_CURVE('',#180,#183,#101,.T.);
#228=EDGE_CURVE('',#184,#183,#102,.T.);
#229=EDGE_CURVE('',#179,#184,#103,.T.);
#230=EDGE_CURVE('',#182,#185,#104,.T.);
#231=EDGE_CURVE('',#183,#185,#105,.T.);
#232=EDGE_CURVE('',#186,#184,#106,.T.);
#233=EDGE_CURVE('',#181,#186,#107,.T.);
#234=EDGE_CURVE('',#185,#186,#108,.T.);
#235=ORIENTED_EDGE('',*,*,#187,.T.);
#236=ORIENTED_EDGE('',*,*,#188,.T.);
#237=ORIENTED_EDGE('',*,*,#189,.F.);
#238=ORIENTED_EDGE('',*,*,#190,.F.);
#239=ORIENTED_EDGE('',*,*,#191,.T.);
#240=ORIENTED_EDGE('',*,*,#192,.T.);
#241=ORIENTED_EDGE('',*,*,#193,.F.);
#242=ORIENTED_EDGE('',*,*,#194,.F.);
#243=ORIENTED_EDGE('',*,*,#195,.T.);
#244=ORIENTED_EDGE('',*,*,#194,.T.);
#245=ORIENTED_EDGE('',*,*,#196,.F.);
#246=ORIENTED_EDGE('',*,*,#188,.F.);
#247=ORIENTED_EDGE('',*,*,#197,.T.);
#248=ORIENTED_EDGE('',*,*,#190,.T.);
#249=ORIENTED_EDGE('',*,*,#198,.F.);
#250=ORIENTED_EDGE('',*,*,#199,.F.);
#251=ORIENTED_EDGE('',*,*,#200,.T.);
#252=ORIENTED_EDGE('',*,*,#199,.T.);
#253=ORIENTED_EDGE('',*,*,#201,.F.);
#254=ORIENTED_EDGE('',*,*,#202,.F.);
#255=ORIENTED_EDGE('',*,*,#203,.T.);
#256=ORIENTED_EDGE('',*,*,#202,.T.);
#257=ORIENTED_EDGE('',*,*,#204,.F.);
#258=ORIENTED_EDGE('',*,*,#192,.F.);
#259=ORIENTED_EDGE('',*,*,#204,.T.);
#260=ORIENTED_EDGE('',*,*,#201,.T.);
#261=ORIENTED_EDGE('',*,*,#198,.T.);
#262=ORIENTED_EDGE('',*,*,#189,.T.);
#263=ORIENTED_EDGE('',*,*,#196,.T.);
#264=ORIENTED_EDGE('',*,*,#193,.T.);
#265=ORIENTED_EDGE('',*,*,#203,.F.);
#266=ORIENTED_EDGE('',*,*,#191,.F.);
#267=ORIENTED_EDGE('',*,*,#195,.F.);
#268=ORIENTED_EDGE('',*,*,#187,.F.);
#269=ORIENTED_EDGE('',*,*,#197,.F.);
#270=ORIENTED_EDGE('',*,*,#200,.F.);
#271=ORIENTED_EDGE('',*,*,#205,.T.);
#272=ORIENTED_EDGE('',*,*,#206,.T.);
#273=ORIENTED_EDGE('',*,*,#207,.F.);
#274=ORIENTED_EDGE('',*,*,#208,.F.);
#275=ORIENTED_EDGE('',*,*,#209,.T.);
#276=ORIENTED_EDGE('',*,*,#208,.T.);
#277=ORIENTED_EDGE('',*,*,#210,.F.);
#278=ORIENTED_EDGE('',*,*,#211,.F.);
#279=ORIENTED_EDGE('',*,*,#212,.T.);
#280=ORIENTED_EDGE('',*,*,#213,.T.);
#281=ORIENTED_EDGE('',*,*,#214,.F.);
#282=ORIENTED_EDGE('',*,*,#206,.F.);
#283=ORIENTED_EDGE('',*,*,#215,.T.);
#284=ORIENTED_EDGE('',*,*,#216,.T.);
#285=ORIENTED_EDGE('',*,*,#217,.F.);
#286=ORIENTED_EDGE('',*,*,#218,.F.);
#287=ORIENTED_EDGE('',*,*,#219,.T.);
#288=ORIENTED_EDGE('',*,*,#218,.T.);
#289=ORIENTED_EDGE('',*,*,#220,.F.);
#290=ORIENTED_EDGE('',*,*,#213,.F.);
#291=ORIENTED_EDGE('',*,*,#221,.T.);
#292=ORIENTED_EDGE('',*,*,#211,.T.);
#293=ORIENTED_EDGE('',*,*,#222,.F.);
#294=ORIENTED_EDGE('',*,*,#216,.F.);
#295=ORIENTED_EDGE('',*,*,#222,.T.);
#296=ORIENTED_EDGE('',*,*,#210,.T.);
#297=ORIENTED_EDGE('',*,*,#207,.T.);
#298=ORIENTED_EDGE('',*,*,#214,.T.);
#299=ORIENTED_EDGE('',*,*,#220,.T.);
#300=ORIENTED_EDGE('',*,*,#217,.T.);
#301=ORIENTED_EDGE('',*,*,#221,.F.);
#302=ORIENTED_EDGE('',*,*,#215,.F.);
#303=ORIENTED_EDGE('',*,*,#219,.F.);
#304=ORIENTED_EDGE('',*,*,#212,.F.);
#305=ORIENTED_EDGE('',*,*,#205,.F.);
#306=ORIENTED_EDGE('',*,*,#209,.F.);
#307=ORIENTED_EDGE('',*,*,#223,.F.);
#308=ORIENTED_EDGE('',*,*,#224,.F.);
#309=ORIENTED_EDGE('',*,*,#225,.F.);
#310=ORIENTED_EDGE('',*,*,#226,.F.);
#311=ORIENTED_EDGE('',*,*,#223,.T.);
#312=ORIENTED_EDGE('',*,*,#227,.T.);
#313=ORIENTED_EDGE('',*,*,#228,.F.);
#314=ORIENTED_EDGE('',*,*,#229,.F.);
#315=ORIENTED_EDGE('',*,*,#226,.T.);
#316=ORIENTED_EDGE('',*,*,#230,.T.);
#317=ORIENTED_EDGE('',*,*,#231,.F.);
#318=ORIENTED_EDGE('',*,*,#227,.F.);
#319=ORIENTED_EDGE('',*,*,#224,.T.);
#320=ORIENTED_EDGE('',*,*,#229,.T.);
#321=ORIENTED_EDGE('',*,*,#232,.F.);
#322=ORIENTED_EDGE('',*,*,#233,.F.);
#323=ORIENTED_EDGE('',*,*,#225,.T.);
#324=ORIENTED_EDGE('',*,*,#233,.T.);
#325=ORIENTED_EDGE('',*,*,#234,.F.);
#326=ORIENTED_EDGE('',*,*,#230,.F.);
#327=ORIENTED_EDGE('',*,*,#234,.T.);
#328=ORIENTED_EDGE('',*,*,#232,.T.);
#329=ORIENTED_EDGE('',*,*,#228,.T.);
#330=ORIENTED_EDGE('',*,*,#231,.T.);
#331=PLANE('',#403);
#332=PLANE('',#404);
#333=PLANE('',#405);
#334=PLANE('',#406);
#335=PLANE('',#407);
#336=PLANE('',#408);
#337=PLANE('',#409);
#338=PLANE('',#410);
#339=PLANE('',#411);
#340=PLANE('',#412);
#341=PLANE('',#413);
#342=PLANE('',#414);
#343=PLANE('',#415);
#344=PLANE('',#416);
#345=PLANE('',#417);
#346=PLANE('',#418);
#347=PLANE('',#422);
#348=PLANE('',#423);
#349=PLANE('',#424);
#350=PLANE('',#425);
#351=PLANE('',#426);
#352=STYLED_ITEM('',(#648),#377);
#353=STYLED_ITEM('',(#648),#378);
#354=STYLED_ITEM('',(#648),#379);
#355=STYLED_ITEM('',(#648),#380);
#356=STYLED_ITEM('',(#648),#381);
#357=STYLED_ITEM('',(#648),#382);
#358=STYLED_ITEM('',(#648),#383);
#359=STYLED_ITEM('',(#648),#384);
#360=STYLED_ITEM('',(#648),#385);
#361=STYLED_ITEM('',(#648),#386);
#362=STYLED_ITEM('',(#648),#387);
#363=STYLED_ITEM('',(#648),#388);
#364=STYLED_ITEM('',(#648),#389);
#365=STYLED_ITEM('',(#648),#390);
#366=STYLED_ITEM('',(#648),#391);
#367=STYLED_ITEM('',(#648),#392);
#368=STYLED_ITEM('',(#647),#16);
#369=STYLED_ITEM('',(#647),#17);
#370=STYLED_ITEM('',(#649),#393);
#371=STYLED_ITEM('',(#649),#394);
#372=STYLED_ITEM('',(#649),#395);
#373=STYLED_ITEM('',(#649),#396);
#374=STYLED_ITEM('',(#649),#397);
#375=STYLED_ITEM('',(#649),#398);
#376=STYLED_ITEM('',(#647),#18);
#377=ADVANCED_FACE('',(#19),#331,.T.);
#378=ADVANCED_FACE('',(#20),#332,.T.);
#379=ADVANCED_FACE('',(#21),#333,.T.);
#380=ADVANCED_FACE('',(#22),#334,.T.);
#381=ADVANCED_FACE('',(#23),#335,.T.);
#382=ADVANCED_FACE('',(#24),#336,.T.);
#383=ADVANCED_FACE('',(#25),#337,.T.);
#384=ADVANCED_FACE('',(#26),#338,.F.);
#385=ADVANCED_FACE('',(#27),#339,.T.);
#386=ADVANCED_FACE('',(#28),#340,.T.);
#387=ADVANCED_FACE('',(#29),#341,.T.);
#388=ADVANCED_FACE('',(#30),#342,.T.);
#389=ADVANCED_FACE('',(#31),#343,.T.);
#390=ADVANCED_FACE('',(#32),#344,.T.);
#391=ADVANCED_FACE('',(#33),#345,.T.);
#392=ADVANCED_FACE('',(#34),#346,.F.);
#393=ADVANCED_FACE('',(#35),#13,.F.);
#394=ADVANCED_FACE('',(#36),#347,.T.);
#395=ADVANCED_FACE('',(#37),#348,.T.);
#396=ADVANCED_FACE('',(#38),#349,.T.);
#397=ADVANCED_FACE('',(#39),#350,.T.);
#398=ADVANCED_FACE('',(#40),#351,.T.);
#399=CLOSED_SHELL('',(#377,#378,#379,#380,#381,#382,#383,#384));
#400=CLOSED_SHELL('',(#385,#386,#387,#388,#389,#390,#391,#392));
#401=CLOSED_SHELL('',(#393,#394,#395,#396,#397,#398));
#402=AXIS2_PLACEMENT_3D('placement',#523,#427,#428);
#403=AXIS2_PLACEMENT_3D('',#524,#429,#430);
#404=AXIS2_PLACEMENT_3D('',#533,#435,#436);
#405=AXIS2_PLACEMENT_3D('',#542,#441,#442);
#406=AXIS2_PLACEMENT_3D('',#545,#445,#446);
#407=AXIS2_PLACEMENT_3D('',#551,#450,#451);
#408=AXIS2_PLACEMENT_3D('',#557,#455,#456);
#409=AXIS2_PLACEMENT_3D('',#560,#459,#460);
#410=AXIS2_PLACEMENT_3D('',#561,#461,#462);
#411=AXIS2_PLACEMENT_3D('',#562,#463,#464);
#412=AXIS2_PLACEMENT_3D('',#571,#469,#470);
#413=AXIS2_PLACEMENT_3D('',#577,#474,#475);
#414=AXIS2_PLACEMENT_3D('',#583,#479,#480);
#415=AXIS2_PLACEMENT_3D('',#592,#485,#486);
#416=AXIS2_PLACEMENT_3D('',#595,#489,#490);
#417=AXIS2_PLACEMENT_3D('',#598,#493,#494);
#418=AXIS2_PLACEMENT_3D('',#599,#495,#496);
#419=AXIS2_PLACEMENT_3D('',#600,#497,#498);
#420=AXIS2_PLACEMENT_3D('',#603,#499,#500);
#421=AXIS2_PLACEMENT_3D('',#607,#502,#503);
#422=AXIS2_PLACEMENT_3D('',#609,#505,#506);
#423=AXIS2_PLACEMENT_3D('',#615,#510,#511);
#424=AXIS2_PLACEMENT_3D('',#619,#514,#515);
#425=AXIS2_PLACEMENT_3D('',#623,#518,#519);
#426=AXIS2_PLACEMENT_3D('',#625,#521,#522);
#427=DIRECTION('axis',(0.,0.,1.));
#428=DIRECTION('refdir',(1.,0.,0.));
#429=DIRECTION('center_axis',(0.,-1.,0.));
#430=DIRECTION('ref_axis',(1.,0.,0.));
#431=DIRECTION('',(1.,0.,0.));
#432=DIRECTION('',(0.,0.,1.));
#433=DIRECTION('',(1.,0.,0.));
#434=DIRECTION('',(0.,0.,1.));
#435=DIRECTION('center_axis',(0.,1.,0.));
#436=DIRECTION('ref_axis',(-1.,0.,0.));
#437=DIRECTION('',(-1.,0.,0.));
#438=DIRECTION('',(0.,0.,1.));
#439=DIRECTION('',(-1.,0.,0.));
#440=DIRECTION('',(0.,0.,1.));
#441=DIRECTION('center_axis',(1.,0.,0.));
#442=DIRECTION('ref_axis',(0.,1.,0.));
#443=DIRECTION('',(0.,1.,0.));
#444=DIRECTION('',(0.,1.,0.));
#445=DIRECTION('center_axis',(-0.573576436351046,-0.819152044288992,0.));
#446=DIRECTION('ref_axis',(0.819152044288992,-0.573576436351046,0.));
#447=DIRECTION('',(0.819152044288992,-0.573576436351046,0.));
#448=DIRECTION('',(0.819152044288992,-0.573576436351046,0.));
#449=DIRECTION('',(0.,0.,1.));
#450=DIRECTION('center_axis',(-1.,0.,0.));
#451=DIRECTION('ref_axis',(0.,-1.,0.));
#452=DIRECTION('',(0.,-1.,0.));
#453=DIRECTION('',(0.,-1.,0.));
#454=DIRECTION('',(0.,0.,1.));
#455=DIRECTION('center_axis',(0.573576436351046,0.819152044288992,0.));
#456=DIRECTION('ref_axis',(-0.819152044288992,0.573576436351046,0.));
#457=DIRECTION('',(-0.819152044288992,0.573576436351046,0.));
#458=DIRECTION('',(-0.819152044288992,0.573576436351046,0.));
#459=DIRECTION('center_axis',(0.,0.,1.));
#460=DIRECTION('ref_axis',(1.,0.,0.));
#461=DIRECTION('center_axis',(0.,0.,1.));
#462=DIRECTION('ref_axis',(1.,0.,0.));
#463=DIRECTION('center_axis',(-1.,0.,0.));
#464=DIRECTION('ref_axis',(0.,-1.,0.));
#465=DIRECTION('',(0.,-1.,0.));
#466=DIRECTION('',(0.,0.,1.));
#467=DIRECTION('',(0.,-1.,0.));
#468=DIRECTION('',(0.,0.,1.));
#469=DIRECTION('center_axis',(0.,1.,0.));
#470=DIRECTION('ref_axis',(-1.,0.,0.));
#471=DIRECTION('',(-1.,0.,0.));
#472=DIRECTION('',(-1.,0.,0.));
#473=DIRECTION('',(0.,0.,1.));
#474=DIRECTION('center_axis',(0.,-1.,0.));
#475=DIRECTION('ref_axis',(1.,0.,0.));
#476=DIRECTION('',(1.,0.,0.));
#477=DIRECTION('',(0.,0.,1.));
#478=DIRECTION('',(1.,0.,0.));
#479=DIRECTION('center_axis',(1.,0.,0.));
#480=DIRECTION('ref_axis',(0.,1.,0.));
#481=DIRECTION('',(0.,1.,0.));
#482=DIRECTION('',(0.,0.,1.));
#483=DIRECTION('',(0.,1.,0.));
#484=DIRECTION('',(0.,0.,1.));
#485=DIRECTION('center_axis',(0.573576436351046,-0.819152044288992,0.));
#486=DIRECTION('ref_axis',(0.819152044288992,0.573576436351046,0.));
#487=DIRECTION('',(0.819152044288992,0.573576436351046,0.));
#488=DIRECTION('',(0.819152044288992,0.573576436351046,0.));
#489=DIRECTION('center_axis',(-0.573576436351046,0.819152044288992,0.));
#490=DIRECTION('ref_axis',(-0.819152044288992,-0.573576436351046,0.));
#491=DIRECTION('',(-0.819152044288992,-0.573576436351046,0.));
#492=DIRECTION('',(-0.819152044288992,-0.573576436351046,0.));
#493=DIRECTION('center_axis',(0.,0.,1.));
#494=DIRECTION('ref_axis',(1.,0.,0.));
#495=DIRECTION('center_axis',(0.,0.,1.));
#496=DIRECTION('ref_axis',(1.,0.,0.));
#497=DIRECTION('center_axis',(0.,-1.,0.));
#498=DIRECTION('ref_axis',(0.440344168720424,0.,-0.897829055596843));
#499=DIRECTION('center_axis',(0.,1.,0.));
#500=DIRECTION('ref_axis',(0.440344168720424,0.,-0.897829055596843));
#501=DIRECTION('',(0.,-1.,0.));
#502=DIRECTION('center_axis',(0.,-1.,0.));
#503=DIRECTION('ref_axis',(0.440344168720424,0.,-0.897829055596843));
#504=DIRECTION('',(0.,1.,0.));
#505=DIRECTION('center_axis',(0.,-1.,0.));
#506=DIRECTION('ref_axis',(-1.,0.,0.));
#507=DIRECTION('',(0.,0.,-1.));
#508=DIRECTION('',(-1.,0.,0.));
#509=DIRECTION('',(0.,0.,-1.));
#510=DIRECTION('center_axis',(-1.,0.,0.));
#511=DIRECTION('ref_axis',(0.,1.,0.));
#512=DIRECTION('',(0.,0.,-1.));
#513=DIRECTION('',(0.,1.,0.));
#514=DIRECTION('center_axis',(1.,0.,0.));
#515=DIRECTION('ref_axis',(0.,-1.,0.));
#516=DIRECTION('',(0.,-1.,0.));
#517=DIRECTION('',(0.,0.,-1.));
#518=DIRECTION('center_axis',(0.,1.,0.));
#519=DIRECTION('ref_axis',(1.,0.,0.));
#520=DIRECTION('',(1.,0.,0.));
#521=DIRECTION('center_axis',(0.,0.,-1.));
#522=DIRECTION('ref_axis',(-1.,0.,0.));
#523=CARTESIAN_POINT('',(0.,0.,0.));
#524=CARTESIAN_POINT('Origin',(8.4,0.,0.));
#525=CARTESIAN_POINT('',(8.4,0.,0.));
#526=CARTESIAN_POINT('',(10.2,0.,0.));
#527=CARTESIAN_POINT('',(8.4,0.,0.));
#528=CARTESIAN_POINT('',(10.2,0.,5.2));
#529=CARTESIAN_POINT('',(10.2,0.,0.));
#530=CARTESIAN_POINT('',(8.4,0.,5.2));
#531=CARTESIAN_POINT('',(8.4,0.,5.2));
#532=CARTESIAN_POINT('',(8.4,0.,0.));
#533=CARTESIAN_POINT('Origin',(10.2,1.42,0.));
#534=CARTESIAN_POINT('',(10.2,1.42,0.));
#535=CARTESIAN_POINT('',(8.4,1.42,0.));
#536=CARTESIAN_POINT('',(10.2,1.42,0.));
#537=CARTESIAN_POINT('',(8.4,1.42,5.2));
#538=CARTESIAN_POINT('',(8.4,1.42,0.));
#539=CARTESIAN_POINT('',(10.2,1.42,5.2));
#540=CARTESIAN_POINT('',(10.2,1.42,5.2));
#541=CARTESIAN_POINT('',(10.2,1.42,0.));
#542=CARTESIAN_POINT('Origin',(10.2,0.,0.));
#543=CARTESIAN_POINT('',(10.2,0.,0.));
#544=CARTESIAN_POINT('',(10.2,0.,5.2));
#545=CARTESIAN_POINT('Origin',(7.68592599662894,0.5,0.));
#546=CARTESIAN_POINT('',(7.68592599662894,0.5,0.));
#547=CARTESIAN_POINT('',(7.68592599662894,0.5,0.));
#548=CARTESIAN_POINT('',(7.68592599662894,0.5,5.2));
#549=CARTESIAN_POINT('',(7.68592599662894,0.5,5.2));
#550=CARTESIAN_POINT('',(7.68592599662894,0.5,0.));
#551=CARTESIAN_POINT('Origin',(7.68592599662894,1.92,0.));
#552=CARTESIAN_POINT('',(7.68592599662894,1.92,0.));
#553=CARTESIAN_POINT('',(7.68592599662894,1.92,0.));
#554=CARTESIAN_POINT('',(7.68592599662894,1.92,5.2));
#555=CARTESIAN_POINT('',(7.68592599662894,1.92,5.2));
#556=CARTESIAN_POINT('',(7.68592599662894,1.92,0.));
#557=CARTESIAN_POINT('Origin',(8.4,1.42,0.));
#558=CARTESIAN_POINT('',(8.4,1.42,0.));
#559=CARTESIAN_POINT('',(8.4,1.42,5.2));
#560=CARTESIAN_POINT('Origin',(8.04296299831447,0.96,5.2));
#561=CARTESIAN_POINT('Origin',(8.04296299831447,0.96,0.));
#562=CARTESIAN_POINT('Origin',(0.,1.42,0.));
#563=CARTESIAN_POINT('',(0.,1.42,0.));
#564=CARTESIAN_POINT('',(0.,0.,0.));
#565=CARTESIAN_POINT('',(0.,1.42,0.));
#566=CARTESIAN_POINT('',(0.,0.,5.2));
#567=CARTESIAN_POINT('',(0.,0.,0.));
#568=CARTESIAN_POINT('',(0.,1.42,5.2));
#569=CARTESIAN_POINT('',(0.,1.42,5.2));
#570=CARTESIAN_POINT('',(0.,1.42,0.));
#571=CARTESIAN_POINT('Origin',(1.8,1.42,0.));
#572=CARTESIAN_POINT('',(1.8,1.42,0.));
#573=CARTESIAN_POINT('',(1.8,1.42,0.));
#574=CARTESIAN_POINT('',(1.8,1.42,5.2));
#575=CARTESIAN_POINT('',(1.8,1.42,5.2));
#576=CARTESIAN_POINT('',(1.8,1.42,0.));
#577=CARTESIAN_POINT('Origin',(0.,0.,0.));
#578=CARTESIAN_POINT('',(1.8,0.,0.));
#579=CARTESIAN_POINT('',(0.,0.,0.));
#580=CARTESIAN_POINT('',(1.8,0.,5.2));
#581=CARTESIAN_POINT('',(1.8,0.,0.));
#582=CARTESIAN_POINT('',(0.,0.,5.2));
#583=CARTESIAN_POINT('Origin',(2.51407400337106,0.5,0.));
#584=CARTESIAN_POINT('',(2.51407400337106,0.5,0.));
#585=CARTESIAN_POINT('',(2.51407400337106,1.92,0.));
#586=CARTESIAN_POINT('',(2.51407400337106,0.5,0.));
#587=CARTESIAN_POINT('',(2.51407400337106,1.92,5.2));
#588=CARTESIAN_POINT('',(2.51407400337106,1.92,0.));
#589=CARTESIAN_POINT('',(2.51407400337106,0.5,5.2));
#590=CARTESIAN_POINT('',(2.51407400337106,0.5,5.2));
#591=CARTESIAN_POINT('',(2.51407400337106,0.5,0.));
#592=CARTESIAN_POINT('Origin',(1.8,0.,0.));
#593=CARTESIAN_POINT('',(1.8,0.,0.));
#594=CARTESIAN_POINT('',(1.8,0.,5.2));
#595=CARTESIAN_POINT('Origin',(2.51407400337106,1.92,0.));
#596=CARTESIAN_POINT('',(2.51407400337106,1.92,0.));
#597=CARTESIAN_POINT('',(2.51407400337106,1.92,5.2));
#598=CARTESIAN_POINT('Origin',(2.15703700168553,0.96,5.2));
#599=CARTESIAN_POINT('Origin',(2.15703700168553,0.96,0.));
#600=CARTESIAN_POINT('Origin',(5.1,1.92,10.4725110500345));
#601=CARTESIAN_POINT('',(7.68592599662894,0.5,5.2));
#602=CARTESIAN_POINT('',(2.51407400337106,0.5,5.2));
#603=CARTESIAN_POINT('Origin',(5.1,0.5,10.4725110500345));
#604=CARTESIAN_POINT('',(7.68592599662894,1.92,5.2));
#605=CARTESIAN_POINT('',(7.68592599662894,1.92,5.2));
#606=CARTESIAN_POINT('',(2.51407400337106,1.92,5.2));
#607=CARTESIAN_POINT('Origin',(5.1,1.92,10.4725110500345));
#608=CARTESIAN_POINT('',(2.51407400337106,0.5,5.2));
#609=CARTESIAN_POINT('Origin',(7.68592599662894,0.5,5.2));
#610=CARTESIAN_POINT('',(2.51407400337106,0.5,0.));
#611=CARTESIAN_POINT('',(2.51407400337106,0.5,5.2));
#612=CARTESIAN_POINT('',(7.68592599662894,0.5,0.));
#613=CARTESIAN_POINT('',(7.68592599662894,0.5,0.));
#614=CARTESIAN_POINT('',(7.68592599662894,0.5,5.2));
#615=CARTESIAN_POINT('Origin',(2.51407400337106,0.5,5.2));
#616=CARTESIAN_POINT('',(2.51407400337106,1.92,0.));
#617=CARTESIAN_POINT('',(2.51407400337106,1.92,5.2));
#618=CARTESIAN_POINT('',(2.51407400337106,0.5,0.));
#619=CARTESIAN_POINT('Origin',(7.68592599662894,1.92,5.2));
#620=CARTESIAN_POINT('',(7.68592599662894,1.92,0.));
#621=CARTESIAN_POINT('',(7.68592599662894,1.92,0.));
#622=CARTESIAN_POINT('',(7.68592599662894,1.92,5.2));
#623=CARTESIAN_POINT('Origin',(2.51407400337106,1.92,5.2));
#624=CARTESIAN_POINT('',(2.51407400337106,1.92,0.));
#625=CARTESIAN_POINT('Origin',(5.1,1.21,0.));
#626=UNCERTAINTY_MEASURE_WITH_UNIT(LENGTH_MEASURE(0.01),#630,
'DISTANCE_ACCURACY_VALUE',
'Maximum model space distance between geometric entities at asserted c
onnectivities');
#627=UNCERTAINTY_MEASURE_WITH_UNIT(LENGTH_MEASURE(1.E-6),#630,
'DISTANCE_ACCURACY_VALUE',
'Maximum model space distance between geometric entities at asserted c
onnectivities');
#628=(
GEOMETRIC_REPRESENTATION_CONTEXT(3)
GLOBAL_UNCERTAINTY_ASSIGNED_CONTEXT((#626))
GLOBAL_UNIT_ASSIGNED_CONTEXT((#630,#633,#631))
REPRESENTATION_CONTEXT('','3D')
);
#629=(
GEOMETRIC_REPRESENTATION_CONTEXT(3)
GLOBAL_UNCERTAINTY_ASSIGNED_CONTEXT((#627))
GLOBAL_UNIT_ASSIGNED_CONTEXT((#630,#633,#631))
REPRESENTATION_CONTEXT('','3D')
);
#630=(
LENGTH_UNIT()
NAMED_UNIT(*)
SI_UNIT(.MILLI.,.METRE.)
);
#631=(
NAMED_UNIT(*)
SI_UNIT($,.STERADIAN.)
SOLID_ANGLE_UNIT()
);
#632=DIMENSIONAL_EXPONENTS(0.,0.,0.,0.,0.,0.,0.);
#633=(
CONVERSION_BASED_UNIT('degree',#635)
NAMED_UNIT(#632)
PLANE_ANGLE_UNIT()
);
#634=(
NAMED_UNIT(*)
PLANE_ANGLE_UNIT()
SI_UNIT($,.RADIAN.)
);
#635=PLANE_ANGLE_MEASURE_WITH_UNIT(PLANE_ANGLE_MEASURE(0.01745329252),#634);
#636=SHAPE_DEFINITION_REPRESENTATION(#637,#638);
#637=PRODUCT_DEFINITION_SHAPE('',$,#640);
#638=SHAPE_REPRESENTATION('',(#402),#628);
#639=PRODUCT_DEFINITION_CONTEXT('part definition',#644,'design');
#640=PRODUCT_DEFINITION('HCS3920_L300','HCS3920_L300',#641,#639);
#641=PRODUCT_DEFINITION_FORMATION('',$,#646);
#642=PRODUCT_RELATED_PRODUCT_CATEGORY('HCS3920_L300','HCS3920_L300',(#646));
#643=APPLICATION_PROTOCOL_DEFINITION('international standard',
'automotive_design',2009,#644);
#644=APPLICATION_CONTEXT(
'Core Data for Automotive Mechanical Design Process');
#645=PRODUCT_CONTEXT('part definition',#644,'mechanical');
#646=PRODUCT('HCS3920_L300','HCS3920_L300',$,(#645));
#647=PRESENTATION_STYLE_ASSIGNMENT((#650));
#648=PRESENTATION_STYLE_ASSIGNMENT((#651));
#649=PRESENTATION_STYLE_ASSIGNMENT((#652));
#650=SURFACE_STYLE_USAGE(.BOTH.,#653);
#651=SURFACE_STYLE_USAGE(.BOTH.,#654);
#652=SURFACE_STYLE_USAGE(.BOTH.,#655);
#653=SURFACE_SIDE_STYLE('',(#656));
#654=SURFACE_SIDE_STYLE('',(#657));
#655=SURFACE_SIDE_STYLE('',(#658));
#656=SURFACE_STYLE_FILL_AREA(#659);
#657=SURFACE_STYLE_FILL_AREA(#660);
#658=SURFACE_STYLE_FILL_AREA(#661);
#659=FILL_AREA_STYLE('',(#662));
#660=FILL_AREA_STYLE('',(#663));
#661=FILL_AREA_STYLE('',(#664));
#662=FILL_AREA_STYLE_COLOUR('',#665);
#663=FILL_AREA_STYLE_COLOUR('',#666);
#664=FILL_AREA_STYLE_COLOUR('',#667);
#665=COLOUR_RGB('',0.749019607843137,0.749019607843137,0.749019607843137);
#666=COLOUR_RGB('',0.6,0.6,0.6);
#667=COLOUR_RGB('',0.411764705882353,0.411764705882353,0.411764705882353);
ENDSEC;
END-ISO-10303-21;
