ISO-10303-21;
HEADER;
/* Generated by software containing ST-Developer
 * from STEP Tools, Inc. (www.steptools.com) 
 */

FILE_DESCRIPTION(
/* description */ (''),
/* implementation_level */ '2;1');

FILE_NAME(
/* name */ 
'C:\\Users\\mulla\\Documents\\SEI Models\\Inventor Files\\HCSM\\HCSM28
18_stp.stp',
/* time_stamp */ '2019-07-10T21:02:42-04:00',
/* author */ ('mulla'),
/* organization */ (''),
/* preprocessor_version */ 'ST-DEVELOPER v16.1',
/* originating_system */ 'Autodesk Inventor 2016',
/* authorisation */ '');

FILE_SCHEMA (('AUTOMOTIVE_DESIGN { 1 0 10303 214 3 1 1 }'));
ENDSEC;

DATA;
#10=MECHANICAL_DESIGN_GEOMETRIC_PRESENTATION_REPRESENTATION('',(#276,#274,
#275,#277,#278,#282,#281,#279,#280,#284,#283,#288,#287,#290,#286,#285,#289,
#291,#293,#292,#294),#491);
#11=SHAPE_REPRESENTATION_RELATIONSHIP('SRR','None',#500,#12);
#12=ADVANCED_BREP_SHAPE_REPRESENTATION('',(#13,#14,#15),#490);
#13=MANIFOLD_SOLID_BREP('Solid1',#313);
#14=MANIFOLD_SOLID_BREP('Solid2',#314);
#15=MANIFOLD_SOLID_BREP('Solid2',#315);
#16=FACE_OUTER_BOUND('',#34,.T.);
#17=FACE_OUTER_BOUND('',#35,.T.);
#18=FACE_OUTER_BOUND('',#36,.T.);
#19=FACE_OUTER_BOUND('',#37,.T.);
#20=FACE_OUTER_BOUND('',#38,.T.);
#21=FACE_OUTER_BOUND('',#39,.T.);
#22=FACE_OUTER_BOUND('',#40,.T.);
#23=FACE_OUTER_BOUND('',#41,.T.);
#24=FACE_OUTER_BOUND('',#42,.T.);
#25=FACE_OUTER_BOUND('',#43,.T.);
#26=FACE_OUTER_BOUND('',#44,.T.);
#27=FACE_OUTER_BOUND('',#45,.T.);
#28=FACE_OUTER_BOUND('',#46,.T.);
#29=FACE_OUTER_BOUND('',#47,.T.);
#30=FACE_OUTER_BOUND('',#48,.T.);
#31=FACE_OUTER_BOUND('',#49,.T.);
#32=FACE_OUTER_BOUND('',#50,.T.);
#33=FACE_OUTER_BOUND('',#51,.T.);
#34=EDGE_LOOP('',(#184,#185,#186,#187));
#35=EDGE_LOOP('',(#188,#189,#190,#191));
#36=EDGE_LOOP('',(#192,#193,#194,#195));
#37=EDGE_LOOP('',(#196,#197,#198,#199));
#38=EDGE_LOOP('',(#200,#201,#202,#203));
#39=EDGE_LOOP('',(#204,#205,#206,#207));
#40=EDGE_LOOP('',(#208,#209,#210,#211));
#41=EDGE_LOOP('',(#212,#213,#214,#215));
#42=EDGE_LOOP('',(#216,#217,#218,#219));
#43=EDGE_LOOP('',(#220,#221,#222,#223));
#44=EDGE_LOOP('',(#224,#225,#226,#227));
#45=EDGE_LOOP('',(#228,#229,#230,#231));
#46=EDGE_LOOP('',(#232,#233,#234,#235));
#47=EDGE_LOOP('',(#236,#237,#238,#239));
#48=EDGE_LOOP('',(#240,#241,#242,#243));
#49=EDGE_LOOP('',(#244,#245,#246,#247));
#50=EDGE_LOOP('',(#248,#249,#250,#251));
#51=EDGE_LOOP('',(#252,#253,#254,#255));
#52=LINE('',#413,#88);
#53=LINE('',#415,#89);
#54=LINE('',#417,#90);
#55=LINE('',#418,#91);
#56=LINE('',#421,#92);
#57=LINE('',#423,#93);
#58=LINE('',#424,#94);
#59=LINE('',#427,#95);
#60=LINE('',#429,#96);
#61=LINE('',#430,#97);
#62=LINE('',#432,#98);
#63=LINE('',#433,#99);
#64=LINE('',#439,#100);
#65=LINE('',#441,#101);
#66=LINE('',#443,#102);
#67=LINE('',#444,#103);
#68=LINE('',#447,#104);
#69=LINE('',#449,#105);
#70=LINE('',#450,#106);
#71=LINE('',#453,#107);
#72=LINE('',#455,#108);
#73=LINE('',#456,#109);
#74=LINE('',#458,#110);
#75=LINE('',#459,#111);
#76=LINE('',#465,#112);
#77=LINE('',#467,#113);
#78=LINE('',#469,#114);
#79=LINE('',#470,#115);
#80=LINE('',#473,#116);
#81=LINE('',#475,#117);
#82=LINE('',#476,#118);
#83=LINE('',#479,#119);
#84=LINE('',#481,#120);
#85=LINE('',#482,#121);
#86=LINE('',#484,#122);
#87=LINE('',#485,#123);
#88=VECTOR('',#339,4.95);
#89=VECTOR('',#340,1.);
#90=VECTOR('',#341,4.95);
#91=VECTOR('',#342,1.);
#92=VECTOR('',#345,7.15);
#93=VECTOR('',#346,7.15);
#94=VECTOR('',#347,1.);
#95=VECTOR('',#350,4.95);
#96=VECTOR('',#351,4.95);
#97=VECTOR('',#352,1.);
#98=VECTOR('',#355,7.15);
#99=VECTOR('',#356,7.15);
#100=VECTOR('',#363,2.9);
#101=VECTOR('',#364,4.95);
#102=VECTOR('',#365,2.9);
#103=VECTOR('',#366,4.95);
#104=VECTOR('',#369,0.65);
#105=VECTOR('',#370,0.65);
#106=VECTOR('',#371,4.95);
#107=VECTOR('',#374,2.9);
#108=VECTOR('',#375,2.9);
#109=VECTOR('',#376,4.95);
#110=VECTOR('',#379,0.65);
#111=VECTOR('',#380,0.65);
#112=VECTOR('',#387,0.65);
#113=VECTOR('',#388,4.95);
#114=VECTOR('',#389,0.65);
#115=VECTOR('',#390,4.95);
#116=VECTOR('',#393,2.9);
#117=VECTOR('',#394,2.9);
#118=VECTOR('',#395,4.95);
#119=VECTOR('',#398,0.65);
#120=VECTOR('',#399,0.65);
#121=VECTOR('',#400,4.95);
#122=VECTOR('',#403,2.9);
#123=VECTOR('',#404,2.9);
#124=VERTEX_POINT('',#411);
#125=VERTEX_POINT('',#412);
#126=VERTEX_POINT('',#414);
#127=VERTEX_POINT('',#416);
#128=VERTEX_POINT('',#420);
#129=VERTEX_POINT('',#422);
#130=VERTEX_POINT('',#426);
#131=VERTEX_POINT('',#428);
#132=VERTEX_POINT('',#437);
#133=VERTEX_POINT('',#438);
#134=VERTEX_POINT('',#440);
#135=VERTEX_POINT('',#442);
#136=VERTEX_POINT('',#446);
#137=VERTEX_POINT('',#448);
#138=VERTEX_POINT('',#452);
#139=VERTEX_POINT('',#454);
#140=VERTEX_POINT('',#463);
#141=VERTEX_POINT('',#464);
#142=VERTEX_POINT('',#466);
#143=VERTEX_POINT('',#468);
#144=VERTEX_POINT('',#472);
#145=VERTEX_POINT('',#474);
#146=VERTEX_POINT('',#478);
#147=VERTEX_POINT('',#480);
#148=EDGE_CURVE('',#124,#125,#52,.T.);
#149=EDGE_CURVE('',#124,#126,#53,.T.);
#150=EDGE_CURVE('',#127,#126,#54,.T.);
#151=EDGE_CURVE('',#125,#127,#55,.T.);
#152=EDGE_CURVE('',#125,#128,#56,.T.);
#153=EDGE_CURVE('',#129,#127,#57,.T.);
#154=EDGE_CURVE('',#128,#129,#58,.T.);
#155=EDGE_CURVE('',#128,#130,#59,.T.);
#156=EDGE_CURVE('',#131,#129,#60,.T.);
#157=EDGE_CURVE('',#130,#131,#61,.T.);
#158=EDGE_CURVE('',#130,#124,#62,.T.);
#159=EDGE_CURVE('',#126,#131,#63,.T.);
#160=EDGE_CURVE('',#132,#133,#64,.T.);
#161=EDGE_CURVE('',#132,#134,#65,.T.);
#162=EDGE_CURVE('',#135,#134,#66,.T.);
#163=EDGE_CURVE('',#133,#135,#67,.T.);
#164=EDGE_CURVE('',#133,#136,#68,.T.);
#165=EDGE_CURVE('',#137,#135,#69,.T.);
#166=EDGE_CURVE('',#136,#137,#70,.T.);
#167=EDGE_CURVE('',#136,#138,#71,.T.);
#168=EDGE_CURVE('',#139,#137,#72,.T.);
#169=EDGE_CURVE('',#138,#139,#73,.T.);
#170=EDGE_CURVE('',#138,#132,#74,.T.);
#171=EDGE_CURVE('',#134,#139,#75,.T.);
#172=EDGE_CURVE('',#140,#141,#76,.T.);
#173=EDGE_CURVE('',#140,#142,#77,.T.);
#174=EDGE_CURVE('',#143,#142,#78,.T.);
#175=EDGE_CURVE('',#141,#143,#79,.T.);
#176=EDGE_CURVE('',#141,#144,#80,.T.);
#177=EDGE_CURVE('',#145,#143,#81,.T.);
#178=EDGE_CURVE('',#144,#145,#82,.T.);
#179=EDGE_CURVE('',#144,#146,#83,.T.);
#180=EDGE_CURVE('',#147,#145,#84,.T.);
#181=EDGE_CURVE('',#146,#147,#85,.T.);
#182=EDGE_CURVE('',#146,#140,#86,.T.);
#183=EDGE_CURVE('',#142,#147,#87,.T.);
#184=ORIENTED_EDGE('',*,*,#148,.F.);
#185=ORIENTED_EDGE('',*,*,#149,.T.);
#186=ORIENTED_EDGE('',*,*,#150,.F.);
#187=ORIENTED_EDGE('',*,*,#151,.F.);
#188=ORIENTED_EDGE('',*,*,#152,.F.);
#189=ORIENTED_EDGE('',*,*,#151,.T.);
#190=ORIENTED_EDGE('',*,*,#153,.F.);
#191=ORIENTED_EDGE('',*,*,#154,.F.);
#192=ORIENTED_EDGE('',*,*,#155,.F.);
#193=ORIENTED_EDGE('',*,*,#154,.T.);
#194=ORIENTED_EDGE('',*,*,#156,.F.);
#195=ORIENTED_EDGE('',*,*,#157,.F.);
#196=ORIENTED_EDGE('',*,*,#158,.F.);
#197=ORIENTED_EDGE('',*,*,#157,.T.);
#198=ORIENTED_EDGE('',*,*,#159,.F.);
#199=ORIENTED_EDGE('',*,*,#149,.F.);
#200=ORIENTED_EDGE('',*,*,#158,.T.);
#201=ORIENTED_EDGE('',*,*,#148,.T.);
#202=ORIENTED_EDGE('',*,*,#152,.T.);
#203=ORIENTED_EDGE('',*,*,#155,.T.);
#204=ORIENTED_EDGE('',*,*,#159,.T.);
#205=ORIENTED_EDGE('',*,*,#156,.T.);
#206=ORIENTED_EDGE('',*,*,#153,.T.);
#207=ORIENTED_EDGE('',*,*,#150,.T.);
#208=ORIENTED_EDGE('',*,*,#160,.F.);
#209=ORIENTED_EDGE('',*,*,#161,.T.);
#210=ORIENTED_EDGE('',*,*,#162,.F.);
#211=ORIENTED_EDGE('',*,*,#163,.F.);
#212=ORIENTED_EDGE('',*,*,#164,.F.);
#213=ORIENTED_EDGE('',*,*,#163,.T.);
#214=ORIENTED_EDGE('',*,*,#165,.F.);
#215=ORIENTED_EDGE('',*,*,#166,.F.);
#216=ORIENTED_EDGE('',*,*,#167,.F.);
#217=ORIENTED_EDGE('',*,*,#166,.T.);
#218=ORIENTED_EDGE('',*,*,#168,.F.);
#219=ORIENTED_EDGE('',*,*,#169,.F.);
#220=ORIENTED_EDGE('',*,*,#170,.F.);
#221=ORIENTED_EDGE('',*,*,#169,.T.);
#222=ORIENTED_EDGE('',*,*,#171,.F.);
#223=ORIENTED_EDGE('',*,*,#161,.F.);
#224=ORIENTED_EDGE('',*,*,#170,.T.);
#225=ORIENTED_EDGE('',*,*,#160,.T.);
#226=ORIENTED_EDGE('',*,*,#164,.T.);
#227=ORIENTED_EDGE('',*,*,#167,.T.);
#228=ORIENTED_EDGE('',*,*,#171,.T.);
#229=ORIENTED_EDGE('',*,*,#168,.T.);
#230=ORIENTED_EDGE('',*,*,#165,.T.);
#231=ORIENTED_EDGE('',*,*,#162,.T.);
#232=ORIENTED_EDGE('',*,*,#172,.F.);
#233=ORIENTED_EDGE('',*,*,#173,.T.);
#234=ORIENTED_EDGE('',*,*,#174,.F.);
#235=ORIENTED_EDGE('',*,*,#175,.F.);
#236=ORIENTED_EDGE('',*,*,#176,.F.);
#237=ORIENTED_EDGE('',*,*,#175,.T.);
#238=ORIENTED_EDGE('',*,*,#177,.F.);
#239=ORIENTED_EDGE('',*,*,#178,.F.);
#240=ORIENTED_EDGE('',*,*,#179,.F.);
#241=ORIENTED_EDGE('',*,*,#178,.T.);
#242=ORIENTED_EDGE('',*,*,#180,.F.);
#243=ORIENTED_EDGE('',*,*,#181,.F.);
#244=ORIENTED_EDGE('',*,*,#182,.F.);
#245=ORIENTED_EDGE('',*,*,#181,.T.);
#246=ORIENTED_EDGE('',*,*,#183,.F.);
#247=ORIENTED_EDGE('',*,*,#173,.F.);
#248=ORIENTED_EDGE('',*,*,#182,.T.);
#249=ORIENTED_EDGE('',*,*,#172,.T.);
#250=ORIENTED_EDGE('',*,*,#176,.T.);
#251=ORIENTED_EDGE('',*,*,#179,.T.);
#252=ORIENTED_EDGE('',*,*,#183,.T.);
#253=ORIENTED_EDGE('',*,*,#180,.T.);
#254=ORIENTED_EDGE('',*,*,#177,.T.);
#255=ORIENTED_EDGE('',*,*,#174,.T.);
#256=PLANE('',#317);
#257=PLANE('',#318);
#258=PLANE('',#319);
#259=PLANE('',#320);
#260=PLANE('',#321);
#261=PLANE('',#322);
#262=PLANE('',#323);
#263=PLANE('',#324);
#264=PLANE('',#325);
#265=PLANE('',#326);
#266=PLANE('',#327);
#267=PLANE('',#328);
#268=PLANE('',#329);
#269=PLANE('',#330);
#270=PLANE('',#331);
#271=PLANE('',#332);
#272=PLANE('',#333);
#273=PLANE('',#334);
#274=STYLED_ITEM('',(#510),#295);
#275=STYLED_ITEM('',(#510),#296);
#276=STYLED_ITEM('',(#510),#297);
#277=STYLED_ITEM('',(#510),#298);
#278=STYLED_ITEM('',(#510),#299);
#279=STYLED_ITEM('',(#510),#300);
#280=STYLED_ITEM('',(#509),#13);
#281=STYLED_ITEM('',(#511),#301);
#282=STYLED_ITEM('',(#511),#302);
#283=STYLED_ITEM('',(#511),#303);
#284=STYLED_ITEM('',(#511),#304);
#285=STYLED_ITEM('',(#511),#305);
#286=STYLED_ITEM('',(#511),#306);
#287=STYLED_ITEM('',(#511),#307);
#288=STYLED_ITEM('',(#511),#308);
#289=STYLED_ITEM('',(#511),#309);
#290=STYLED_ITEM('',(#511),#310);
#291=STYLED_ITEM('',(#511),#311);
#292=STYLED_ITEM('',(#511),#312);
#293=STYLED_ITEM('',(#509),#14);
#294=STYLED_ITEM('',(#509),#15);
#295=ADVANCED_FACE('',(#16),#256,.T.);
#296=ADVANCED_FACE('',(#17),#257,.T.);
#297=ADVANCED_FACE('',(#18),#258,.T.);
#298=ADVANCED_FACE('',(#19),#259,.T.);
#299=ADVANCED_FACE('',(#20),#260,.F.);
#300=ADVANCED_FACE('',(#21),#261,.T.);
#301=ADVANCED_FACE('',(#22),#262,.T.);
#302=ADVANCED_FACE('',(#23),#263,.T.);
#303=ADVANCED_FACE('',(#24),#264,.T.);
#304=ADVANCED_FACE('',(#25),#265,.T.);
#305=ADVANCED_FACE('',(#26),#266,.T.);
#306=ADVANCED_FACE('',(#27),#267,.T.);
#307=ADVANCED_FACE('',(#28),#268,.T.);
#308=ADVANCED_FACE('',(#29),#269,.T.);
#309=ADVANCED_FACE('',(#30),#270,.T.);
#310=ADVANCED_FACE('',(#31),#271,.T.);
#311=ADVANCED_FACE('',(#32),#272,.T.);
#312=ADVANCED_FACE('',(#33),#273,.T.);
#313=CLOSED_SHELL('',(#295,#296,#297,#298,#299,#300));
#314=CLOSED_SHELL('',(#301,#302,#303,#304,#305,#306));
#315=CLOSED_SHELL('',(#307,#308,#309,#310,#311,#312));
#316=AXIS2_PLACEMENT_3D('placement',#409,#335,#336);
#317=AXIS2_PLACEMENT_3D('',#410,#337,#338);
#318=AXIS2_PLACEMENT_3D('',#419,#343,#344);
#319=AXIS2_PLACEMENT_3D('',#425,#348,#349);
#320=AXIS2_PLACEMENT_3D('',#431,#353,#354);
#321=AXIS2_PLACEMENT_3D('',#434,#357,#358);
#322=AXIS2_PLACEMENT_3D('',#435,#359,#360);
#323=AXIS2_PLACEMENT_3D('',#436,#361,#362);
#324=AXIS2_PLACEMENT_3D('',#445,#367,#368);
#325=AXIS2_PLACEMENT_3D('',#451,#372,#373);
#326=AXIS2_PLACEMENT_3D('',#457,#377,#378);
#327=AXIS2_PLACEMENT_3D('',#460,#381,#382);
#328=AXIS2_PLACEMENT_3D('',#461,#383,#384);
#329=AXIS2_PLACEMENT_3D('',#462,#385,#386);
#330=AXIS2_PLACEMENT_3D('',#471,#391,#392);
#331=AXIS2_PLACEMENT_3D('',#477,#396,#397);
#332=AXIS2_PLACEMENT_3D('',#483,#401,#402);
#333=AXIS2_PLACEMENT_3D('',#486,#405,#406);
#334=AXIS2_PLACEMENT_3D('',#487,#407,#408);
#335=DIRECTION('axis',(0.,0.,1.));
#336=DIRECTION('refdir',(1.,0.,0.));
#337=DIRECTION('center_axis',(1.,0.,0.));
#338=DIRECTION('ref_axis',(0.,0.,-1.));
#339=DIRECTION('',(0.,0.,1.));
#340=DIRECTION('',(0.,1.,0.));
#341=DIRECTION('',(0.,0.,-1.));
#342=DIRECTION('',(0.,1.,0.));
#343=DIRECTION('center_axis',(0.,0.,1.));
#344=DIRECTION('ref_axis',(1.,0.,0.));
#345=DIRECTION('',(-1.,0.,0.));
#346=DIRECTION('',(1.,0.,0.));
#347=DIRECTION('',(0.,1.,0.));
#348=DIRECTION('center_axis',(-1.,0.,0.));
#349=DIRECTION('ref_axis',(0.,0.,1.));
#350=DIRECTION('',(0.,0.,-1.));
#351=DIRECTION('',(0.,0.,1.));
#352=DIRECTION('',(0.,1.,0.));
#353=DIRECTION('center_axis',(0.,0.,-1.));
#354=DIRECTION('ref_axis',(-1.,0.,0.));
#355=DIRECTION('',(1.,0.,0.));
#356=DIRECTION('',(-1.,0.,0.));
#357=DIRECTION('center_axis',(0.,1.,0.));
#358=DIRECTION('ref_axis',(0.,0.,1.));
#359=DIRECTION('center_axis',(0.,1.,0.));
#360=DIRECTION('ref_axis',(0.,0.,1.));
#361=DIRECTION('center_axis',(0.,-1.,0.));
#362=DIRECTION('ref_axis',(-1.,0.,0.));
#363=DIRECTION('',(1.,0.,0.));
#364=DIRECTION('',(0.,0.,-1.));
#365=DIRECTION('',(-1.,0.,0.));
#366=DIRECTION('',(0.,0.,-1.));
#367=DIRECTION('center_axis',(1.,0.,0.));
#368=DIRECTION('ref_axis',(0.,-1.,0.));
#369=DIRECTION('',(0.,1.,0.));
#370=DIRECTION('',(0.,-1.,0.));
#371=DIRECTION('',(0.,0.,-1.));
#372=DIRECTION('center_axis',(0.,1.,0.));
#373=DIRECTION('ref_axis',(1.,0.,0.));
#374=DIRECTION('',(-1.,0.,0.));
#375=DIRECTION('',(1.,0.,0.));
#376=DIRECTION('',(0.,0.,-1.));
#377=DIRECTION('center_axis',(-1.,0.,0.));
#378=DIRECTION('ref_axis',(0.,1.,0.));
#379=DIRECTION('',(0.,-1.,0.));
#380=DIRECTION('',(0.,1.,0.));
#381=DIRECTION('center_axis',(0.,0.,1.));
#382=DIRECTION('ref_axis',(1.,0.,0.));
#383=DIRECTION('center_axis',(0.,0.,-1.));
#384=DIRECTION('ref_axis',(-1.,0.,0.));
#385=DIRECTION('center_axis',(-1.,0.,0.));
#386=DIRECTION('ref_axis',(0.,1.,0.));
#387=DIRECTION('',(0.,-1.,0.));
#388=DIRECTION('',(0.,0.,-1.));
#389=DIRECTION('',(0.,1.,0.));
#390=DIRECTION('',(0.,0.,-1.));
#391=DIRECTION('center_axis',(0.,-1.,0.));
#392=DIRECTION('ref_axis',(-1.,0.,0.));
#393=DIRECTION('',(1.,0.,0.));
#394=DIRECTION('',(-1.,0.,0.));
#395=DIRECTION('',(0.,0.,-1.));
#396=DIRECTION('center_axis',(1.,0.,0.));
#397=DIRECTION('ref_axis',(0.,-1.,0.));
#398=DIRECTION('',(0.,1.,0.));
#399=DIRECTION('',(0.,-1.,0.));
#400=DIRECTION('',(0.,0.,-1.));
#401=DIRECTION('center_axis',(0.,1.,0.));
#402=DIRECTION('ref_axis',(1.,0.,0.));
#403=DIRECTION('',(-1.,0.,0.));
#404=DIRECTION('',(1.,0.,0.));
#405=DIRECTION('center_axis',(0.,0.,1.));
#406=DIRECTION('ref_axis',(1.,0.,0.));
#407=DIRECTION('center_axis',(0.,0.,-1.));
#408=DIRECTION('ref_axis',(-1.,0.,0.));
#409=CARTESIAN_POINT('',(0.,0.,0.));
#410=CARTESIAN_POINT('Origin',(7.15,0.,4.95));
#411=CARTESIAN_POINT('',(7.15,0.,0.));
#412=CARTESIAN_POINT('',(7.15,0.,4.95));
#413=CARTESIAN_POINT('',(7.15,0.,0.));
#414=CARTESIAN_POINT('',(7.15,1.,0.));
#415=CARTESIAN_POINT('',(7.15,0.,0.));
#416=CARTESIAN_POINT('',(7.15,1.,4.95));
#417=CARTESIAN_POINT('',(7.15,1.,0.));
#418=CARTESIAN_POINT('',(7.15,0.,4.95));
#419=CARTESIAN_POINT('Origin',(0.,0.,4.95));
#420=CARTESIAN_POINT('',(0.,0.,4.95));
#421=CARTESIAN_POINT('',(7.15,0.,4.95));
#422=CARTESIAN_POINT('',(0.,1.,4.95));
#423=CARTESIAN_POINT('',(7.15,1.,4.95));
#424=CARTESIAN_POINT('',(0.,0.,4.95));
#425=CARTESIAN_POINT('Origin',(0.,0.,0.));
#426=CARTESIAN_POINT('',(0.,0.,0.));
#427=CARTESIAN_POINT('',(0.,0.,4.95));
#428=CARTESIAN_POINT('',(0.,1.,0.));
#429=CARTESIAN_POINT('',(0.,1.,4.95));
#430=CARTESIAN_POINT('',(0.,0.,0.));
#431=CARTESIAN_POINT('Origin',(7.15,0.,0.));
#432=CARTESIAN_POINT('',(0.,0.,0.));
#433=CARTESIAN_POINT('',(0.,1.,0.));
#434=CARTESIAN_POINT('Origin',(3.575,0.,2.475));
#435=CARTESIAN_POINT('Origin',(3.575,1.,2.475));
#436=CARTESIAN_POINT('Origin',(2.9,-0.65,4.95));
#437=CARTESIAN_POINT('',(0.,-0.65,4.95));
#438=CARTESIAN_POINT('',(2.9,-0.65,4.95));
#439=CARTESIAN_POINT('',(0.,-0.65,4.95));
#440=CARTESIAN_POINT('',(0.,-0.65,0.));
#441=CARTESIAN_POINT('',(0.,-0.65,4.95));
#442=CARTESIAN_POINT('',(2.9,-0.65,0.));
#443=CARTESIAN_POINT('',(0.,-0.65,0.));
#444=CARTESIAN_POINT('',(2.9,-0.65,4.95));
#445=CARTESIAN_POINT('Origin',(2.9,0.,4.95));
#446=CARTESIAN_POINT('',(2.9,0.,4.95));
#447=CARTESIAN_POINT('',(2.9,-0.65,4.95));
#448=CARTESIAN_POINT('',(2.9,0.,0.));
#449=CARTESIAN_POINT('',(2.9,-0.65,0.));
#450=CARTESIAN_POINT('',(2.9,0.,4.95));
#451=CARTESIAN_POINT('Origin',(0.,0.,4.95));
#452=CARTESIAN_POINT('',(0.,0.,4.95));
#453=CARTESIAN_POINT('',(2.9,0.,4.95));
#454=CARTESIAN_POINT('',(0.,0.,0.));
#455=CARTESIAN_POINT('',(2.9,0.,0.));
#456=CARTESIAN_POINT('',(0.,0.,4.95));
#457=CARTESIAN_POINT('Origin',(0.,-0.65,4.95));
#458=CARTESIAN_POINT('',(0.,0.,4.95));
#459=CARTESIAN_POINT('',(0.,0.,0.));
#460=CARTESIAN_POINT('Origin',(1.45,-0.325,4.95));
#461=CARTESIAN_POINT('Origin',(1.45,-0.325,0.));
#462=CARTESIAN_POINT('Origin',(4.25,-0.65,4.95));
#463=CARTESIAN_POINT('',(4.25,0.,4.95));
#464=CARTESIAN_POINT('',(4.25,-0.65,4.95));
#465=CARTESIAN_POINT('',(4.25,0.,4.95));
#466=CARTESIAN_POINT('',(4.25,0.,0.));
#467=CARTESIAN_POINT('',(4.25,0.,4.95));
#468=CARTESIAN_POINT('',(4.25,-0.65,0.));
#469=CARTESIAN_POINT('',(4.25,0.,0.));
#470=CARTESIAN_POINT('',(4.25,-0.65,4.95));
#471=CARTESIAN_POINT('Origin',(7.15,-0.65,4.95));
#472=CARTESIAN_POINT('',(7.15,-0.65,4.95));
#473=CARTESIAN_POINT('',(4.25,-0.65,4.95));
#474=CARTESIAN_POINT('',(7.15,-0.65,0.));
#475=CARTESIAN_POINT('',(4.25,-0.65,0.));
#476=CARTESIAN_POINT('',(7.15,-0.65,4.95));
#477=CARTESIAN_POINT('Origin',(7.15,0.,4.95));
#478=CARTESIAN_POINT('',(7.15,0.,4.95));
#479=CARTESIAN_POINT('',(7.15,-0.65,4.95));
#480=CARTESIAN_POINT('',(7.15,0.,0.));
#481=CARTESIAN_POINT('',(7.15,-0.65,0.));
#482=CARTESIAN_POINT('',(7.15,0.,4.95));
#483=CARTESIAN_POINT('Origin',(4.25,0.,4.95));
#484=CARTESIAN_POINT('',(7.15,0.,4.95));
#485=CARTESIAN_POINT('',(7.15,0.,0.));
#486=CARTESIAN_POINT('Origin',(5.7,-0.325,4.95));
#487=CARTESIAN_POINT('Origin',(5.7,-0.325,0.));
#488=UNCERTAINTY_MEASURE_WITH_UNIT(LENGTH_MEASURE(0.01),#492,
'DISTANCE_ACCURACY_VALUE',
'Maximum model space distance between geometric entities at asserted c
onnectivities');
#489=UNCERTAINTY_MEASURE_WITH_UNIT(LENGTH_MEASURE(1.E-6),#492,
'DISTANCE_ACCURACY_VALUE',
'Maximum model space distance between geometric entities at asserted c
onnectivities');
#490=(
GEOMETRIC_REPRESENTATION_CONTEXT(3)
GLOBAL_UNCERTAINTY_ASSIGNED_CONTEXT((#488))
GLOBAL_UNIT_ASSIGNED_CONTEXT((#492,#495,#493))
REPRESENTATION_CONTEXT('','3D')
);
#491=(
GEOMETRIC_REPRESENTATION_CONTEXT(3)
GLOBAL_UNCERTAINTY_ASSIGNED_CONTEXT((#489))
GLOBAL_UNIT_ASSIGNED_CONTEXT((#492,#495,#493))
REPRESENTATION_CONTEXT('','3D')
);
#492=(
LENGTH_UNIT()
NAMED_UNIT(*)
SI_UNIT(.MILLI.,.METRE.)
);
#493=(
NAMED_UNIT(*)
SI_UNIT($,.STERADIAN.)
SOLID_ANGLE_UNIT()
);
#494=DIMENSIONAL_EXPONENTS(0.,0.,0.,0.,0.,0.,0.);
#495=(
CONVERSION_BASED_UNIT('degree',#497)
NAMED_UNIT(#494)
PLANE_ANGLE_UNIT()
);
#496=(
NAMED_UNIT(*)
PLANE_ANGLE_UNIT()
SI_UNIT($,.RADIAN.)
);
#497=PLANE_ANGLE_MEASURE_WITH_UNIT(PLANE_ANGLE_MEASURE(0.01745329252),#496);
#498=SHAPE_DEFINITION_REPRESENTATION(#499,#500);
#499=PRODUCT_DEFINITION_SHAPE('',$,#502);
#500=SHAPE_REPRESENTATION('',(#316),#490);
#501=PRODUCT_DEFINITION_CONTEXT('part definition',#506,'design');
#502=PRODUCT_DEFINITION('HCSM2818','HCSM2818',#503,#501);
#503=PRODUCT_DEFINITION_FORMATION('',$,#508);
#504=PRODUCT_RELATED_PRODUCT_CATEGORY('HCSM2818','HCSM2818',(#508));
#505=APPLICATION_PROTOCOL_DEFINITION('international standard',
'automotive_design',2009,#506);
#506=APPLICATION_CONTEXT(
'Core Data for Automotive Mechanical Design Process');
#507=PRODUCT_CONTEXT('part definition',#506,'mechanical');
#508=PRODUCT('HCSM2818','HCSM2818',$,(#507));
#509=PRESENTATION_STYLE_ASSIGNMENT((#512));
#510=PRESENTATION_STYLE_ASSIGNMENT((#513));
#511=PRESENTATION_STYLE_ASSIGNMENT((#514));
#512=SURFACE_STYLE_USAGE(.BOTH.,#515);
#513=SURFACE_STYLE_USAGE(.BOTH.,#516);
#514=SURFACE_STYLE_USAGE(.BOTH.,#517);
#515=SURFACE_SIDE_STYLE('',(#518));
#516=SURFACE_SIDE_STYLE('',(#519));
#517=SURFACE_SIDE_STYLE('',(#520));
#518=SURFACE_STYLE_FILL_AREA(#521);
#519=SURFACE_STYLE_FILL_AREA(#522);
#520=SURFACE_STYLE_FILL_AREA(#523);
#521=FILL_AREA_STYLE('',(#524));
#522=FILL_AREA_STYLE('',(#525));
#523=FILL_AREA_STYLE('',(#526));
#524=FILL_AREA_STYLE_COLOUR('',#527);
#525=FILL_AREA_STYLE_COLOUR('',#528);
#526=FILL_AREA_STYLE_COLOUR('',#529);
#527=COLOUR_RGB('',0.749019607843137,0.749019607843137,0.749019607843137);
#528=COLOUR_RGB('',0.270588235294118,0.270588235294118,0.270588235294118);
#529=COLOUR_RGB('',0.6,0.6,0.6);
ENDSEC;
END-ISO-10303-21;
