ISO-10303-21;
HEADER;
/* Generated by software containing ST-Developer
 * from STEP Tools, Inc. (www.steptools.com) 
 */

FILE_DESCRIPTION(
/* description */ (''),
/* implementation_level */ '2;1');

FILE_NAME(
/* name */ 
'C:\\Users\\mulla\\Documents\\SEI Models\\Inventor Files\\SM\\SM2615_s
tp.stp',
/* time_stamp */ '2019-07-12T14:56:38-04:00',
/* author */ ('mulla'),
/* organization */ (''),
/* preprocessor_version */ 'ST-DEVELOPER v16.1',
/* originating_system */ 'Autodesk Inventor 2016',
/* authorisation */ '');

FILE_SCHEMA (('AUTOMOTIVE_DESIGN { 1 0 10303 214 3 1 1 }'));
ENDSEC;

DATA;
#10=MECHANICAL_DESIGN_GEOMETRIC_PRESENTATION_REPRESENTATION('',(#14,#15,
#16,#17,#19,#18,#20),#705);
#11=SHAPE_REPRESENTATION_RELATIONSHIP('SRR','None',#714,#12);
#12=ADVANCED_BREP_SHAPE_REPRESENTATION('',(#13),#704);
#13=MANIFOLD_SOLID_BREP('Solid1',#449);
#14=STYLED_ITEM('',(#724),#439);
#15=STYLED_ITEM('',(#724),#440);
#16=STYLED_ITEM('',(#724),#445);
#17=STYLED_ITEM('',(#724),#446);
#18=STYLED_ITEM('',(#724),#447);
#19=STYLED_ITEM('',(#724),#448);
#20=STYLED_ITEM('',(#723),#13);
#21=FACE_OUTER_BOUND('',#43,.T.);
#22=FACE_OUTER_BOUND('',#44,.T.);
#23=FACE_OUTER_BOUND('',#45,.T.);
#24=FACE_OUTER_BOUND('',#46,.T.);
#25=FACE_OUTER_BOUND('',#47,.T.);
#26=FACE_OUTER_BOUND('',#48,.T.);
#27=FACE_OUTER_BOUND('',#49,.T.);
#28=FACE_OUTER_BOUND('',#50,.T.);
#29=FACE_OUTER_BOUND('',#51,.T.);
#30=FACE_OUTER_BOUND('',#52,.T.);
#31=FACE_OUTER_BOUND('',#53,.T.);
#32=FACE_OUTER_BOUND('',#54,.T.);
#33=FACE_OUTER_BOUND('',#55,.T.);
#34=FACE_OUTER_BOUND('',#56,.T.);
#35=FACE_OUTER_BOUND('',#57,.T.);
#36=FACE_OUTER_BOUND('',#58,.T.);
#37=FACE_OUTER_BOUND('',#59,.T.);
#38=FACE_OUTER_BOUND('',#60,.T.);
#39=FACE_OUTER_BOUND('',#61,.T.);
#40=FACE_OUTER_BOUND('',#62,.T.);
#41=FACE_OUTER_BOUND('',#63,.T.);
#42=FACE_OUTER_BOUND('',#64,.T.);
#43=EDGE_LOOP('',(#285,#286,#287,#288,#289,#290));
#44=EDGE_LOOP('',(#291,#292,#293,#294));
#45=EDGE_LOOP('',(#295,#296,#297,#298));
#46=EDGE_LOOP('',(#299,#300,#301,#302));
#47=EDGE_LOOP('',(#303,#304,#305,#306,#307,#308));
#48=EDGE_LOOP('',(#309,#310,#311,#312));
#49=EDGE_LOOP('',(#313,#314,#315,#316,#317,#318));
#50=EDGE_LOOP('',(#319,#320,#321,#322));
#51=EDGE_LOOP('',(#323,#324,#325,#326));
#52=EDGE_LOOP('',(#327,#328,#329,#330,#331,#332));
#53=EDGE_LOOP('',(#333,#334,#335,#336));
#54=EDGE_LOOP('',(#337,#338,#339,#340));
#55=EDGE_LOOP('',(#341,#342,#343,#344,#345,#346,#347,#348));
#56=EDGE_LOOP('',(#349,#350,#351,#352,#353,#354,#355,#356));
#57=EDGE_LOOP('',(#357,#358,#359,#360));
#58=EDGE_LOOP('',(#361,#362,#363,#364,#365,#366,#367,#368));
#59=EDGE_LOOP('',(#369,#370,#371,#372,#373,#374,#375,#376));
#60=EDGE_LOOP('',(#377,#378,#379,#380));
#61=EDGE_LOOP('',(#381,#382,#383,#384));
#62=EDGE_LOOP('',(#385,#386,#387,#388));
#63=EDGE_LOOP('',(#389,#390,#391,#392,#393,#394,#395,#396));
#64=EDGE_LOOP('',(#397,#398,#399,#400,#401,#402,#403,#404));
#65=LINE('',#583,#125);
#66=LINE('',#585,#126);
#67=LINE('',#587,#127);
#68=LINE('',#589,#128);
#69=LINE('',#591,#129);
#70=LINE('',#592,#130);
#71=LINE('',#595,#131);
#72=LINE('',#597,#132);
#73=LINE('',#598,#133);
#74=LINE('',#601,#134);
#75=LINE('',#603,#135);
#76=LINE('',#604,#136);
#77=LINE('',#607,#137);
#78=LINE('',#608,#138);
#79=LINE('',#611,#139);
#80=LINE('',#612,#140);
#81=LINE('',#613,#141);
#82=LINE('',#618,#142);
#83=LINE('',#620,#143);
#84=LINE('',#622,#144);
#85=LINE('',#624,#145);
#86=LINE('',#626,#146);
#87=LINE('',#627,#147);
#88=LINE('',#630,#148);
#89=LINE('',#632,#149);
#90=LINE('',#633,#150);
#91=LINE('',#636,#151);
#92=LINE('',#638,#152);
#93=LINE('',#639,#153);
#94=LINE('',#642,#154);
#95=LINE('',#644,#155);
#96=LINE('',#645,#156);
#97=LINE('',#646,#157);
#98=LINE('',#648,#158);
#99=LINE('',#652,#159);
#100=LINE('',#654,#160);
#101=LINE('',#656,#161);
#102=LINE('',#658,#162);
#103=LINE('',#659,#163);
#104=LINE('',#662,#164);
#105=LINE('',#664,#165);
#106=LINE('',#666,#166);
#107=LINE('',#668,#167);
#108=LINE('',#669,#168);
#109=LINE('',#673,#169);
#110=LINE('',#675,#170);
#111=LINE('',#677,#171);
#112=LINE('',#678,#172);
#113=LINE('',#680,#173);
#114=LINE('',#681,#174);
#115=LINE('',#684,#175);
#116=LINE('',#686,#176);
#117=LINE('',#687,#177);
#118=LINE('',#690,#178);
#119=LINE('',#692,#179);
#120=LINE('',#693,#180);
#121=LINE('',#695,#181);
#122=LINE('',#696,#182);
#123=LINE('',#698,#183);
#124=LINE('',#699,#184);
#125=VECTOR('',#477,1.525);
#126=VECTOR('',#478,2.035);
#127=VECTOR('',#479,0.255);
#128=VECTOR('',#480,2.29);
#129=VECTOR('',#481,1.78);
#130=VECTOR('',#482,0.255);
#131=VECTOR('',#485,2.54);
#132=VECTOR('',#486,0.255);
#133=VECTOR('',#487,2.54);
#134=VECTOR('',#490,2.54);
#135=VECTOR('',#491,2.54);
#136=VECTOR('',#492,0.255);
#137=VECTOR('',#495,2.54);
#138=VECTOR('',#496,1.78);
#139=VECTOR('',#499,1.525);
#140=VECTOR('',#500,2.29);
#141=VECTOR('',#501,2.035);
#142=VECTOR('',#506,1.525);
#143=VECTOR('',#507,2.035);
#144=VECTOR('',#508,0.255);
#145=VECTOR('',#509,2.29);
#146=VECTOR('',#510,1.78);
#147=VECTOR('',#511,0.255);
#148=VECTOR('',#514,2.54);
#149=VECTOR('',#515,0.255);
#150=VECTOR('',#516,2.54);
#151=VECTOR('',#519,2.54);
#152=VECTOR('',#520,2.54);
#153=VECTOR('',#521,0.255);
#154=VECTOR('',#524,1.525);
#155=VECTOR('',#525,1.78);
#156=VECTOR('',#526,2.29);
#157=VECTOR('',#527,2.035);
#158=VECTOR('',#530,2.54);
#159=VECTOR('',#535,0.635);
#160=VECTOR('',#536,3.305);
#161=VECTOR('',#537,3.81);
#162=VECTOR('',#538,3.305);
#163=VECTOR('',#539,0.635);
#164=VECTOR('',#542,0.635);
#165=VECTOR('',#543,3.305);
#166=VECTOR('',#544,3.81);
#167=VECTOR('',#545,3.305);
#168=VECTOR('',#546,0.635);
#169=VECTOR('',#549,0.255);
#170=VECTOR('',#550,3.81);
#171=VECTOR('',#551,0.255);
#172=VECTOR('',#552,3.81);
#173=VECTOR('',#555,2.4);
#174=VECTOR('',#556,2.4);
#175=VECTOR('',#559,2.4);
#176=VECTOR('',#560,3.81);
#177=VECTOR('',#561,2.4);
#178=VECTOR('',#564,0.255);
#179=VECTOR('',#565,3.81);
#180=VECTOR('',#566,0.255);
#181=VECTOR('',#569,1.8);
#182=VECTOR('',#570,1.8);
#183=VECTOR('',#573,6.6);
#184=VECTOR('',#574,6.6);
#185=VERTEX_POINT('',#581);
#186=VERTEX_POINT('',#582);
#187=VERTEX_POINT('',#584);
#188=VERTEX_POINT('',#586);
#189=VERTEX_POINT('',#588);
#190=VERTEX_POINT('',#590);
#191=VERTEX_POINT('',#594);
#192=VERTEX_POINT('',#596);
#193=VERTEX_POINT('',#600);
#194=VERTEX_POINT('',#602);
#195=VERTEX_POINT('',#606);
#196=VERTEX_POINT('',#610);
#197=VERTEX_POINT('',#616);
#198=VERTEX_POINT('',#617);
#199=VERTEX_POINT('',#619);
#200=VERTEX_POINT('',#621);
#201=VERTEX_POINT('',#623);
#202=VERTEX_POINT('',#625);
#203=VERTEX_POINT('',#629);
#204=VERTEX_POINT('',#631);
#205=VERTEX_POINT('',#635);
#206=VERTEX_POINT('',#637);
#207=VERTEX_POINT('',#641);
#208=VERTEX_POINT('',#643);
#209=VERTEX_POINT('',#651);
#210=VERTEX_POINT('',#653);
#211=VERTEX_POINT('',#655);
#212=VERTEX_POINT('',#657);
#213=VERTEX_POINT('',#661);
#214=VERTEX_POINT('',#663);
#215=VERTEX_POINT('',#665);
#216=VERTEX_POINT('',#667);
#217=VERTEX_POINT('',#671);
#218=VERTEX_POINT('',#672);
#219=VERTEX_POINT('',#674);
#220=VERTEX_POINT('',#676);
#221=VERTEX_POINT('',#683);
#222=VERTEX_POINT('',#685);
#223=VERTEX_POINT('',#689);
#224=VERTEX_POINT('',#691);
#225=EDGE_CURVE('',#185,#186,#65,.T.);
#226=EDGE_CURVE('',#187,#185,#66,.T.);
#227=EDGE_CURVE('',#187,#188,#67,.T.);
#228=EDGE_CURVE('',#189,#188,#68,.T.);
#229=EDGE_CURVE('',#189,#190,#69,.T.);
#230=EDGE_CURVE('',#186,#190,#70,.T.);
#231=EDGE_CURVE('',#191,#187,#71,.T.);
#232=EDGE_CURVE('',#191,#192,#72,.T.);
#233=EDGE_CURVE('',#188,#192,#73,.T.);
#234=EDGE_CURVE('',#186,#193,#74,.T.);
#235=EDGE_CURVE('',#190,#194,#75,.T.);
#236=EDGE_CURVE('',#194,#193,#76,.T.);
#237=EDGE_CURVE('',#195,#189,#77,.T.);
#238=EDGE_CURVE('',#194,#195,#78,.T.);
#239=EDGE_CURVE('',#193,#196,#79,.T.);
#240=EDGE_CURVE('',#192,#195,#80,.T.);
#241=EDGE_CURVE('',#196,#191,#81,.T.);
#242=EDGE_CURVE('',#197,#198,#82,.T.);
#243=EDGE_CURVE('',#199,#197,#83,.T.);
#244=EDGE_CURVE('',#199,#200,#84,.T.);
#245=EDGE_CURVE('',#201,#200,#85,.T.);
#246=EDGE_CURVE('',#202,#201,#86,.T.);
#247=EDGE_CURVE('',#198,#202,#87,.T.);
#248=EDGE_CURVE('',#203,#199,#88,.T.);
#249=EDGE_CURVE('',#203,#204,#89,.T.);
#250=EDGE_CURVE('',#200,#204,#90,.T.);
#251=EDGE_CURVE('',#198,#205,#91,.T.);
#252=EDGE_CURVE('',#202,#206,#92,.T.);
#253=EDGE_CURVE('',#206,#205,#93,.T.);
#254=EDGE_CURVE('',#205,#207,#94,.T.);
#255=EDGE_CURVE('',#208,#206,#95,.T.);
#256=EDGE_CURVE('',#204,#208,#96,.T.);
#257=EDGE_CURVE('',#207,#203,#97,.T.);
#258=EDGE_CURVE('',#208,#201,#98,.T.);
#259=EDGE_CURVE('',#196,#209,#99,.T.);
#260=EDGE_CURVE('',#210,#209,#100,.T.);
#261=EDGE_CURVE('',#211,#210,#101,.T.);
#262=EDGE_CURVE('',#211,#212,#102,.T.);
#263=EDGE_CURVE('',#212,#185,#103,.T.);
#264=EDGE_CURVE('',#207,#213,#104,.T.);
#265=EDGE_CURVE('',#213,#214,#105,.T.);
#266=EDGE_CURVE('',#214,#215,#106,.T.);
#267=EDGE_CURVE('',#216,#215,#107,.T.);
#268=EDGE_CURVE('',#216,#197,#108,.T.);
#269=EDGE_CURVE('',#217,#218,#109,.T.);
#270=EDGE_CURVE('',#217,#219,#110,.T.);
#271=EDGE_CURVE('',#220,#219,#111,.T.);
#272=EDGE_CURVE('',#218,#220,#112,.T.);
#273=EDGE_CURVE('',#219,#212,#113,.T.);
#274=EDGE_CURVE('',#209,#217,#114,.T.);
#275=EDGE_CURVE('',#221,#216,#115,.T.);
#276=EDGE_CURVE('',#221,#222,#116,.T.);
#277=EDGE_CURVE('',#213,#222,#117,.T.);
#278=EDGE_CURVE('',#223,#221,#118,.T.);
#279=EDGE_CURVE('',#224,#223,#119,.T.);
#280=EDGE_CURVE('',#222,#224,#120,.T.);
#281=EDGE_CURVE('',#220,#224,#121,.T.);
#282=EDGE_CURVE('',#218,#223,#122,.T.);
#283=EDGE_CURVE('',#214,#211,#123,.T.);
#284=EDGE_CURVE('',#215,#210,#124,.T.);
#285=ORIENTED_EDGE('',*,*,#225,.F.);
#286=ORIENTED_EDGE('',*,*,#226,.F.);
#287=ORIENTED_EDGE('',*,*,#227,.T.);
#288=ORIENTED_EDGE('',*,*,#228,.F.);
#289=ORIENTED_EDGE('',*,*,#229,.T.);
#290=ORIENTED_EDGE('',*,*,#230,.F.);
#291=ORIENTED_EDGE('',*,*,#231,.F.);
#292=ORIENTED_EDGE('',*,*,#232,.T.);
#293=ORIENTED_EDGE('',*,*,#233,.F.);
#294=ORIENTED_EDGE('',*,*,#227,.F.);
#295=ORIENTED_EDGE('',*,*,#234,.F.);
#296=ORIENTED_EDGE('',*,*,#230,.T.);
#297=ORIENTED_EDGE('',*,*,#235,.T.);
#298=ORIENTED_EDGE('',*,*,#236,.T.);
#299=ORIENTED_EDGE('',*,*,#229,.F.);
#300=ORIENTED_EDGE('',*,*,#237,.F.);
#301=ORIENTED_EDGE('',*,*,#238,.F.);
#302=ORIENTED_EDGE('',*,*,#235,.F.);
#303=ORIENTED_EDGE('',*,*,#239,.F.);
#304=ORIENTED_EDGE('',*,*,#236,.F.);
#305=ORIENTED_EDGE('',*,*,#238,.T.);
#306=ORIENTED_EDGE('',*,*,#240,.F.);
#307=ORIENTED_EDGE('',*,*,#232,.F.);
#308=ORIENTED_EDGE('',*,*,#241,.F.);
#309=ORIENTED_EDGE('',*,*,#228,.T.);
#310=ORIENTED_EDGE('',*,*,#233,.T.);
#311=ORIENTED_EDGE('',*,*,#240,.T.);
#312=ORIENTED_EDGE('',*,*,#237,.T.);
#313=ORIENTED_EDGE('',*,*,#242,.F.);
#314=ORIENTED_EDGE('',*,*,#243,.F.);
#315=ORIENTED_EDGE('',*,*,#244,.T.);
#316=ORIENTED_EDGE('',*,*,#245,.F.);
#317=ORIENTED_EDGE('',*,*,#246,.F.);
#318=ORIENTED_EDGE('',*,*,#247,.F.);
#319=ORIENTED_EDGE('',*,*,#248,.F.);
#320=ORIENTED_EDGE('',*,*,#249,.T.);
#321=ORIENTED_EDGE('',*,*,#250,.F.);
#322=ORIENTED_EDGE('',*,*,#244,.F.);
#323=ORIENTED_EDGE('',*,*,#251,.F.);
#324=ORIENTED_EDGE('',*,*,#247,.T.);
#325=ORIENTED_EDGE('',*,*,#252,.T.);
#326=ORIENTED_EDGE('',*,*,#253,.T.);
#327=ORIENTED_EDGE('',*,*,#254,.F.);
#328=ORIENTED_EDGE('',*,*,#253,.F.);
#329=ORIENTED_EDGE('',*,*,#255,.F.);
#330=ORIENTED_EDGE('',*,*,#256,.F.);
#331=ORIENTED_EDGE('',*,*,#249,.F.);
#332=ORIENTED_EDGE('',*,*,#257,.F.);
#333=ORIENTED_EDGE('',*,*,#246,.T.);
#334=ORIENTED_EDGE('',*,*,#258,.F.);
#335=ORIENTED_EDGE('',*,*,#255,.T.);
#336=ORIENTED_EDGE('',*,*,#252,.F.);
#337=ORIENTED_EDGE('',*,*,#258,.T.);
#338=ORIENTED_EDGE('',*,*,#245,.T.);
#339=ORIENTED_EDGE('',*,*,#250,.T.);
#340=ORIENTED_EDGE('',*,*,#256,.T.);
#341=ORIENTED_EDGE('',*,*,#225,.T.);
#342=ORIENTED_EDGE('',*,*,#234,.T.);
#343=ORIENTED_EDGE('',*,*,#239,.T.);
#344=ORIENTED_EDGE('',*,*,#259,.T.);
#345=ORIENTED_EDGE('',*,*,#260,.F.);
#346=ORIENTED_EDGE('',*,*,#261,.F.);
#347=ORIENTED_EDGE('',*,*,#262,.T.);
#348=ORIENTED_EDGE('',*,*,#263,.T.);
#349=ORIENTED_EDGE('',*,*,#242,.T.);
#350=ORIENTED_EDGE('',*,*,#251,.T.);
#351=ORIENTED_EDGE('',*,*,#254,.T.);
#352=ORIENTED_EDGE('',*,*,#264,.T.);
#353=ORIENTED_EDGE('',*,*,#265,.T.);
#354=ORIENTED_EDGE('',*,*,#266,.T.);
#355=ORIENTED_EDGE('',*,*,#267,.F.);
#356=ORIENTED_EDGE('',*,*,#268,.T.);
#357=ORIENTED_EDGE('',*,*,#269,.F.);
#358=ORIENTED_EDGE('',*,*,#270,.T.);
#359=ORIENTED_EDGE('',*,*,#271,.F.);
#360=ORIENTED_EDGE('',*,*,#272,.F.);
#361=ORIENTED_EDGE('',*,*,#226,.T.);
#362=ORIENTED_EDGE('',*,*,#263,.F.);
#363=ORIENTED_EDGE('',*,*,#273,.F.);
#364=ORIENTED_EDGE('',*,*,#270,.F.);
#365=ORIENTED_EDGE('',*,*,#274,.F.);
#366=ORIENTED_EDGE('',*,*,#259,.F.);
#367=ORIENTED_EDGE('',*,*,#241,.T.);
#368=ORIENTED_EDGE('',*,*,#231,.T.);
#369=ORIENTED_EDGE('',*,*,#243,.T.);
#370=ORIENTED_EDGE('',*,*,#268,.F.);
#371=ORIENTED_EDGE('',*,*,#275,.F.);
#372=ORIENTED_EDGE('',*,*,#276,.T.);
#373=ORIENTED_EDGE('',*,*,#277,.F.);
#374=ORIENTED_EDGE('',*,*,#264,.F.);
#375=ORIENTED_EDGE('',*,*,#257,.T.);
#376=ORIENTED_EDGE('',*,*,#248,.T.);
#377=ORIENTED_EDGE('',*,*,#278,.F.);
#378=ORIENTED_EDGE('',*,*,#279,.F.);
#379=ORIENTED_EDGE('',*,*,#280,.F.);
#380=ORIENTED_EDGE('',*,*,#276,.F.);
#381=ORIENTED_EDGE('',*,*,#272,.T.);
#382=ORIENTED_EDGE('',*,*,#281,.T.);
#383=ORIENTED_EDGE('',*,*,#279,.T.);
#384=ORIENTED_EDGE('',*,*,#282,.F.);
#385=ORIENTED_EDGE('',*,*,#283,.T.);
#386=ORIENTED_EDGE('',*,*,#261,.T.);
#387=ORIENTED_EDGE('',*,*,#284,.F.);
#388=ORIENTED_EDGE('',*,*,#266,.F.);
#389=ORIENTED_EDGE('',*,*,#269,.T.);
#390=ORIENTED_EDGE('',*,*,#282,.T.);
#391=ORIENTED_EDGE('',*,*,#278,.T.);
#392=ORIENTED_EDGE('',*,*,#275,.T.);
#393=ORIENTED_EDGE('',*,*,#267,.T.);
#394=ORIENTED_EDGE('',*,*,#284,.T.);
#395=ORIENTED_EDGE('',*,*,#260,.T.);
#396=ORIENTED_EDGE('',*,*,#274,.T.);
#397=ORIENTED_EDGE('',*,*,#273,.T.);
#398=ORIENTED_EDGE('',*,*,#262,.F.);
#399=ORIENTED_EDGE('',*,*,#283,.F.);
#400=ORIENTED_EDGE('',*,*,#265,.F.);
#401=ORIENTED_EDGE('',*,*,#277,.T.);
#402=ORIENTED_EDGE('',*,*,#280,.T.);
#403=ORIENTED_EDGE('',*,*,#281,.F.);
#404=ORIENTED_EDGE('',*,*,#271,.T.);
#405=PLANE('',#451);
#406=PLANE('',#452);
#407=PLANE('',#453);
#408=PLANE('',#454);
#409=PLANE('',#455);
#410=PLANE('',#456);
#411=PLANE('',#457);
#412=PLANE('',#458);
#413=PLANE('',#459);
#414=PLANE('',#460);
#415=PLANE('',#461);
#416=PLANE('',#462);
#417=PLANE('',#463);
#418=PLANE('',#464);
#419=PLANE('',#465);
#420=PLANE('',#466);
#421=PLANE('',#467);
#422=PLANE('',#468);
#423=PLANE('',#469);
#424=PLANE('',#470);
#425=PLANE('',#471);
#426=PLANE('',#472);
#427=ADVANCED_FACE('',(#21),#405,.T.);
#428=ADVANCED_FACE('',(#22),#406,.T.);
#429=ADVANCED_FACE('',(#23),#407,.T.);
#430=ADVANCED_FACE('',(#24),#408,.T.);
#431=ADVANCED_FACE('',(#25),#409,.T.);
#432=ADVANCED_FACE('',(#26),#410,.T.);
#433=ADVANCED_FACE('',(#27),#411,.T.);
#434=ADVANCED_FACE('',(#28),#412,.T.);
#435=ADVANCED_FACE('',(#29),#413,.T.);
#436=ADVANCED_FACE('',(#30),#414,.T.);
#437=ADVANCED_FACE('',(#31),#415,.T.);
#438=ADVANCED_FACE('',(#32),#416,.T.);
#439=ADVANCED_FACE('',(#33),#417,.T.);
#440=ADVANCED_FACE('',(#34),#418,.T.);
#441=ADVANCED_FACE('',(#35),#419,.F.);
#442=ADVANCED_FACE('',(#36),#420,.F.);
#443=ADVANCED_FACE('',(#37),#421,.F.);
#444=ADVANCED_FACE('',(#38),#422,.F.);
#445=ADVANCED_FACE('',(#39),#423,.T.);
#446=ADVANCED_FACE('',(#40),#424,.T.);
#447=ADVANCED_FACE('',(#41),#425,.T.);
#448=ADVANCED_FACE('',(#42),#426,.F.);
#449=CLOSED_SHELL('',(#427,#428,#429,#430,#431,#432,#433,#434,#435,#436,
#437,#438,#439,#440,#441,#442,#443,#444,#445,#446,#447,#448));
#450=AXIS2_PLACEMENT_3D('placement',#579,#473,#474);
#451=AXIS2_PLACEMENT_3D('',#580,#475,#476);
#452=AXIS2_PLACEMENT_3D('',#593,#483,#484);
#453=AXIS2_PLACEMENT_3D('',#599,#488,#489);
#454=AXIS2_PLACEMENT_3D('',#605,#493,#494);
#455=AXIS2_PLACEMENT_3D('',#609,#497,#498);
#456=AXIS2_PLACEMENT_3D('',#614,#502,#503);
#457=AXIS2_PLACEMENT_3D('',#615,#504,#505);
#458=AXIS2_PLACEMENT_3D('',#628,#512,#513);
#459=AXIS2_PLACEMENT_3D('',#634,#517,#518);
#460=AXIS2_PLACEMENT_3D('',#640,#522,#523);
#461=AXIS2_PLACEMENT_3D('',#647,#528,#529);
#462=AXIS2_PLACEMENT_3D('',#649,#531,#532);
#463=AXIS2_PLACEMENT_3D('',#650,#533,#534);
#464=AXIS2_PLACEMENT_3D('',#660,#540,#541);
#465=AXIS2_PLACEMENT_3D('',#670,#547,#548);
#466=AXIS2_PLACEMENT_3D('',#679,#553,#554);
#467=AXIS2_PLACEMENT_3D('',#682,#557,#558);
#468=AXIS2_PLACEMENT_3D('',#688,#562,#563);
#469=AXIS2_PLACEMENT_3D('',#694,#567,#568);
#470=AXIS2_PLACEMENT_3D('',#697,#571,#572);
#471=AXIS2_PLACEMENT_3D('',#700,#575,#576);
#472=AXIS2_PLACEMENT_3D('',#701,#577,#578);
#473=DIRECTION('axis',(0.,0.,1.));
#474=DIRECTION('refdir',(1.,0.,0.));
#475=DIRECTION('center_axis',(0.,0.,-1.));
#476=DIRECTION('ref_axis',(1.,0.,0.));
#477=DIRECTION('',(0.,1.,0.));
#478=DIRECTION('',(-1.,0.,0.));
#479=DIRECTION('',(0.,-1.,0.));
#480=DIRECTION('',(1.,0.,0.));
#481=DIRECTION('',(0.,1.,0.));
#482=DIRECTION('',(-1.,0.,0.));
#483=DIRECTION('center_axis',(1.,0.,0.));
#484=DIRECTION('ref_axis',(0.,0.,1.));
#485=DIRECTION('',(0.,0.,-1.));
#486=DIRECTION('',(0.,-1.,0.));
#487=DIRECTION('',(0.,0.,1.));
#488=DIRECTION('center_axis',(0.,1.,0.));
#489=DIRECTION('ref_axis',(0.,0.,1.));
#490=DIRECTION('',(0.,0.,1.));
#491=DIRECTION('',(0.,0.,1.));
#492=DIRECTION('',(1.,0.,0.));
#493=DIRECTION('center_axis',(-1.,0.,0.));
#494=DIRECTION('ref_axis',(0.,0.,-1.));
#495=DIRECTION('',(0.,0.,-1.));
#496=DIRECTION('',(0.,-1.,0.));
#497=DIRECTION('center_axis',(0.,0.,1.));
#498=DIRECTION('ref_axis',(-1.,0.,0.));
#499=DIRECTION('',(0.,-1.,0.));
#500=DIRECTION('',(-1.,0.,0.));
#501=DIRECTION('',(1.,0.,0.));
#502=DIRECTION('center_axis',(0.,-1.,0.));
#503=DIRECTION('ref_axis',(0.,0.,-1.));
#504=DIRECTION('center_axis',(0.,0.,1.));
#505=DIRECTION('ref_axis',(-1.,0.,0.));
#506=DIRECTION('',(0.,1.,0.));
#507=DIRECTION('',(1.,0.,0.));
#508=DIRECTION('',(0.,-1.,0.));
#509=DIRECTION('',(-1.,0.,0.));
#510=DIRECTION('',(0.,-1.,0.));
#511=DIRECTION('',(1.,0.,0.));
#512=DIRECTION('center_axis',(-1.,0.,0.));
#513=DIRECTION('ref_axis',(0.,0.,-1.));
#514=DIRECTION('',(0.,0.,1.));
#515=DIRECTION('',(0.,-1.,0.));
#516=DIRECTION('',(0.,0.,-1.));
#517=DIRECTION('center_axis',(0.,1.,0.));
#518=DIRECTION('ref_axis',(0.,0.,1.));
#519=DIRECTION('',(0.,0.,-1.));
#520=DIRECTION('',(0.,0.,-1.));
#521=DIRECTION('',(-1.,0.,0.));
#522=DIRECTION('center_axis',(0.,0.,-1.));
#523=DIRECTION('ref_axis',(1.,0.,0.));
#524=DIRECTION('',(0.,-1.,0.));
#525=DIRECTION('',(0.,1.,0.));
#526=DIRECTION('',(1.,0.,0.));
#527=DIRECTION('',(-1.,0.,0.));
#528=DIRECTION('center_axis',(1.,0.,0.));
#529=DIRECTION('ref_axis',(0.,0.,1.));
#530=DIRECTION('',(0.,0.,1.));
#531=DIRECTION('center_axis',(0.,-1.,0.));
#532=DIRECTION('ref_axis',(0.,0.,-1.));
#533=DIRECTION('center_axis',(-1.,0.,0.));
#534=DIRECTION('ref_axis',(0.,-1.,0.));
#535=DIRECTION('',(0.,0.,1.));
#536=DIRECTION('',(0.,-1.,0.));
#537=DIRECTION('',(0.,0.,1.));
#538=DIRECTION('',(0.,-1.,0.));
#539=DIRECTION('',(0.,0.,1.));
#540=DIRECTION('center_axis',(1.,0.,0.));
#541=DIRECTION('ref_axis',(0.,1.,0.));
#542=DIRECTION('',(0.,0.,-1.));
#543=DIRECTION('',(0.,1.,0.));
#544=DIRECTION('',(0.,0.,1.));
#545=DIRECTION('',(0.,1.,0.));
#546=DIRECTION('',(0.,0.,-1.));
#547=DIRECTION('center_axis',(1.,0.,0.));
#548=DIRECTION('ref_axis',(0.,-1.,0.));
#549=DIRECTION('',(0.,-1.,0.));
#550=DIRECTION('',(0.,0.,-1.));
#551=DIRECTION('',(0.,1.,0.));
#552=DIRECTION('',(0.,0.,-1.));
#553=DIRECTION('center_axis',(0.,1.,0.));
#554=DIRECTION('ref_axis',(1.,0.,0.));
#555=DIRECTION('',(-1.,0.,0.));
#556=DIRECTION('',(1.,0.,0.));
#557=DIRECTION('center_axis',(0.,1.,0.));
#558=DIRECTION('ref_axis',(1.,0.,0.));
#559=DIRECTION('',(1.,0.,0.));
#560=DIRECTION('',(0.,0.,-1.));
#561=DIRECTION('',(-1.,0.,0.));
#562=DIRECTION('center_axis',(-1.,0.,0.));
#563=DIRECTION('ref_axis',(0.,1.,0.));
#564=DIRECTION('',(0.,1.,0.));
#565=DIRECTION('',(0.,0.,1.));
#566=DIRECTION('',(0.,-1.,0.));
#567=DIRECTION('center_axis',(0.,-1.,0.));
#568=DIRECTION('ref_axis',(1.,0.,0.));
#569=DIRECTION('',(1.,0.,0.));
#570=DIRECTION('',(1.,0.,0.));
#571=DIRECTION('center_axis',(0.,1.,0.));
#572=DIRECTION('ref_axis',(-1.,0.,0.));
#573=DIRECTION('',(-1.,0.,0.));
#574=DIRECTION('',(-1.,0.,0.));
#575=DIRECTION('center_axis',(0.,0.,1.));
#576=DIRECTION('ref_axis',(1.,0.,0.));
#577=DIRECTION('center_axis',(0.,0.,1.));
#578=DIRECTION('ref_axis',(1.,0.,0.));
#579=CARTESIAN_POINT('',(0.,0.,0.));
#580=CARTESIAN_POINT('Origin',(-0.255,0.255,0.635));
#581=CARTESIAN_POINT('',(0.,0.255,0.635));
#582=CARTESIAN_POINT('',(0.,1.78,0.635));
#583=CARTESIAN_POINT('',(0.,1.9075,0.635));
#584=CARTESIAN_POINT('',(2.035,0.255,0.635));
#585=CARTESIAN_POINT('',(-0.1275,0.255,0.635));
#586=CARTESIAN_POINT('',(2.035,0.,0.635));
#587=CARTESIAN_POINT('',(2.035,0.255,0.635));
#588=CARTESIAN_POINT('',(-0.255,0.,0.635));
#589=CARTESIAN_POINT('',(-0.255,0.,0.635));
#590=CARTESIAN_POINT('',(-0.255,1.78,0.635));
#591=CARTESIAN_POINT('',(-0.255,0.255,0.635));
#592=CARTESIAN_POINT('',(-0.255,1.78,0.635));
#593=CARTESIAN_POINT('Origin',(2.035,0.255,0.635));
#594=CARTESIAN_POINT('',(2.035,0.255,3.175));
#595=CARTESIAN_POINT('',(2.035,0.255,2.2225));
#596=CARTESIAN_POINT('',(2.035,0.,3.175));
#597=CARTESIAN_POINT('',(2.035,0.255,3.175));
#598=CARTESIAN_POINT('',(2.035,0.,0.635));
#599=CARTESIAN_POINT('Origin',(0.89,1.78,1.905));
#600=CARTESIAN_POINT('',(0.,1.78,3.175));
#601=CARTESIAN_POINT('',(0.,1.78,0.9525));
#602=CARTESIAN_POINT('',(-0.255,1.78,3.175));
#603=CARTESIAN_POINT('',(-0.255,1.78,3.175));
#604=CARTESIAN_POINT('',(2.035,1.78,3.175));
#605=CARTESIAN_POINT('Origin',(-0.255,0.255,3.175));
#606=CARTESIAN_POINT('',(-0.255,0.,3.175));
#607=CARTESIAN_POINT('',(-0.255,0.,3.175));
#608=CARTESIAN_POINT('',(-0.255,0.255,3.175));
#609=CARTESIAN_POINT('Origin',(2.035,0.255,3.175));
#610=CARTESIAN_POINT('',(0.,0.255,3.175));
#611=CARTESIAN_POINT('',(0.,1.9075,3.175));
#612=CARTESIAN_POINT('',(2.035,0.,3.175));
#613=CARTESIAN_POINT('',(1.0175,0.255,3.175));
#614=CARTESIAN_POINT('Origin',(0.89,0.,1.905));
#615=CARTESIAN_POINT('Origin',(6.855,0.255,3.175));
#616=CARTESIAN_POINT('',(6.6,0.255,3.175));
#617=CARTESIAN_POINT('',(6.6,1.78,3.175));
#618=CARTESIAN_POINT('',(6.6,0.1275,3.175));
#619=CARTESIAN_POINT('',(4.565,0.255,3.175));
#620=CARTESIAN_POINT('',(5.5275,0.255,3.175));
#621=CARTESIAN_POINT('',(4.565,0.,3.175));
#622=CARTESIAN_POINT('',(4.565,0.255,3.175));
#623=CARTESIAN_POINT('',(6.855,0.,3.175));
#624=CARTESIAN_POINT('',(6.855,0.,3.175));
#625=CARTESIAN_POINT('',(6.855,1.78,3.175));
#626=CARTESIAN_POINT('',(6.855,0.255,3.175));
#627=CARTESIAN_POINT('',(6.855,1.78,3.175));
#628=CARTESIAN_POINT('Origin',(4.565,0.255,3.175));
#629=CARTESIAN_POINT('',(4.565,0.255,0.635));
#630=CARTESIAN_POINT('',(4.565,0.255,3.4925));
#631=CARTESIAN_POINT('',(4.565,0.,0.635));
#632=CARTESIAN_POINT('',(4.565,0.255,0.635));
#633=CARTESIAN_POINT('',(4.565,0.,3.175));
#634=CARTESIAN_POINT('Origin',(5.71,1.78,1.905));
#635=CARTESIAN_POINT('',(6.6,1.78,0.635));
#636=CARTESIAN_POINT('',(6.6,1.78,0.9525));
#637=CARTESIAN_POINT('',(6.855,1.78,0.635));
#638=CARTESIAN_POINT('',(6.855,1.78,0.635));
#639=CARTESIAN_POINT('',(4.565,1.78,0.635));
#640=CARTESIAN_POINT('Origin',(4.565,0.255,0.635));
#641=CARTESIAN_POINT('',(6.6,0.255,0.635));
#642=CARTESIAN_POINT('',(6.6,0.1275,0.635));
#643=CARTESIAN_POINT('',(6.855,0.,0.635));
#644=CARTESIAN_POINT('',(6.855,0.255,0.635));
#645=CARTESIAN_POINT('',(4.565,0.,0.635));
#646=CARTESIAN_POINT('',(4.3825,0.255,0.635));
#647=CARTESIAN_POINT('Origin',(6.855,0.255,0.635));
#648=CARTESIAN_POINT('',(6.855,0.,0.635));
#649=CARTESIAN_POINT('Origin',(5.71,0.,1.905));
#650=CARTESIAN_POINT('Origin',(0.,3.56,0.));
#651=CARTESIAN_POINT('',(0.,0.255,3.81));
#652=CARTESIAN_POINT('',(0.,0.255,1.905));
#653=CARTESIAN_POINT('',(0.,3.56,3.81));
#654=CARTESIAN_POINT('',(0.,3.56,3.81));
#655=CARTESIAN_POINT('',(0.,3.56,0.));
#656=CARTESIAN_POINT('',(0.,3.56,0.));
#657=CARTESIAN_POINT('',(0.,0.255,0.));
#658=CARTESIAN_POINT('',(0.,3.56,0.));
#659=CARTESIAN_POINT('',(0.,0.255,1.905));
#660=CARTESIAN_POINT('Origin',(6.6,0.,0.));
#661=CARTESIAN_POINT('',(6.6,0.255,0.));
#662=CARTESIAN_POINT('',(6.6,0.255,1.905));
#663=CARTESIAN_POINT('',(6.6,3.56,0.));
#664=CARTESIAN_POINT('',(6.6,0.,0.));
#665=CARTESIAN_POINT('',(6.6,3.56,3.81));
#666=CARTESIAN_POINT('',(6.6,3.56,0.));
#667=CARTESIAN_POINT('',(6.6,0.255,3.81));
#668=CARTESIAN_POINT('',(6.6,0.,3.81));
#669=CARTESIAN_POINT('',(6.6,0.255,1.905));
#670=CARTESIAN_POINT('Origin',(2.4,0.255,3.81));
#671=CARTESIAN_POINT('',(2.4,0.255,3.81));
#672=CARTESIAN_POINT('',(2.4,0.,3.81));
#673=CARTESIAN_POINT('',(2.4,1.0175,3.81));
#674=CARTESIAN_POINT('',(2.4,0.255,0.));
#675=CARTESIAN_POINT('',(2.4,0.255,3.81));
#676=CARTESIAN_POINT('',(2.4,0.,0.));
#677=CARTESIAN_POINT('',(2.4,1.0175,0.));
#678=CARTESIAN_POINT('',(2.4,0.,1.905));
#679=CARTESIAN_POINT('Origin',(0.,0.255,3.81));
#680=CARTESIAN_POINT('',(1.65,0.255,0.));
#681=CARTESIAN_POINT('',(1.65,0.255,3.81));
#682=CARTESIAN_POINT('Origin',(4.2,0.255,3.81));
#683=CARTESIAN_POINT('',(4.2,0.255,3.81));
#684=CARTESIAN_POINT('',(3.75,0.255,3.81));
#685=CARTESIAN_POINT('',(4.2,0.255,0.));
#686=CARTESIAN_POINT('',(4.2,0.255,3.81));
#687=CARTESIAN_POINT('',(3.75,0.255,0.));
#688=CARTESIAN_POINT('Origin',(4.2,0.,3.81));
#689=CARTESIAN_POINT('',(4.2,0.,3.81));
#690=CARTESIAN_POINT('',(4.2,0.89,3.81));
#691=CARTESIAN_POINT('',(4.2,0.,0.));
#692=CARTESIAN_POINT('',(4.2,0.,1.905));
#693=CARTESIAN_POINT('',(4.2,0.89,0.));
#694=CARTESIAN_POINT('Origin',(0.,0.,0.));
#695=CARTESIAN_POINT('',(0.,0.,0.));
#696=CARTESIAN_POINT('',(0.,0.,3.81));
#697=CARTESIAN_POINT('Origin',(6.6,3.56,0.));
#698=CARTESIAN_POINT('',(6.6,3.56,0.));
#699=CARTESIAN_POINT('',(6.6,3.56,3.81));
#700=CARTESIAN_POINT('Origin',(3.3,1.78,3.81));
#701=CARTESIAN_POINT('Origin',(3.3,1.78,0.));
#702=UNCERTAINTY_MEASURE_WITH_UNIT(LENGTH_MEASURE(0.01),#706,
'DISTANCE_ACCURACY_VALUE',
'Maximum model space distance between geometric entities at asserted c
onnectivities');
#703=UNCERTAINTY_MEASURE_WITH_UNIT(LENGTH_MEASURE(1.E-6),#706,
'DISTANCE_ACCURACY_VALUE',
'Maximum model space distance between geometric entities at asserted c
onnectivities');
#704=(
GEOMETRIC_REPRESENTATION_CONTEXT(3)
GLOBAL_UNCERTAINTY_ASSIGNED_CONTEXT((#702))
GLOBAL_UNIT_ASSIGNED_CONTEXT((#706,#709,#707))
REPRESENTATION_CONTEXT('','3D')
);
#705=(
GEOMETRIC_REPRESENTATION_CONTEXT(3)
GLOBAL_UNCERTAINTY_ASSIGNED_CONTEXT((#703))
GLOBAL_UNIT_ASSIGNED_CONTEXT((#706,#709,#707))
REPRESENTATION_CONTEXT('','3D')
);
#706=(
LENGTH_UNIT()
NAMED_UNIT(*)
SI_UNIT(.MILLI.,.METRE.)
);
#707=(
NAMED_UNIT(*)
SI_UNIT($,.STERADIAN.)
SOLID_ANGLE_UNIT()
);
#708=DIMENSIONAL_EXPONENTS(0.,0.,0.,0.,0.,0.,0.);
#709=(
CONVERSION_BASED_UNIT('degree',#711)
NAMED_UNIT(#708)
PLANE_ANGLE_UNIT()
);
#710=(
NAMED_UNIT(*)
PLANE_ANGLE_UNIT()
SI_UNIT($,.RADIAN.)
);
#711=PLANE_ANGLE_MEASURE_WITH_UNIT(PLANE_ANGLE_MEASURE(0.01745329252),#710);
#712=SHAPE_DEFINITION_REPRESENTATION(#713,#714);
#713=PRODUCT_DEFINITION_SHAPE('',$,#716);
#714=SHAPE_REPRESENTATION('',(#450),#704);
#715=PRODUCT_DEFINITION_CONTEXT('part definition',#720,'design');
#716=PRODUCT_DEFINITION('SM2615','SM2615',#717,#715);
#717=PRODUCT_DEFINITION_FORMATION('',$,#722);
#718=PRODUCT_RELATED_PRODUCT_CATEGORY('SM2615','SM2615',(#722));
#719=APPLICATION_PROTOCOL_DEFINITION('international standard',
'automotive_design',2009,#720);
#720=APPLICATION_CONTEXT(
'Core Data for Automotive Mechanical Design Process');
#721=PRODUCT_CONTEXT('part definition',#720,'mechanical');
#722=PRODUCT('SM2615','SM2615',$,(#721));
#723=PRESENTATION_STYLE_ASSIGNMENT((#725));
#724=PRESENTATION_STYLE_ASSIGNMENT((#726));
#725=SURFACE_STYLE_USAGE(.BOTH.,#727);
#726=SURFACE_STYLE_USAGE(.BOTH.,#728);
#727=SURFACE_SIDE_STYLE('',(#729));
#728=SURFACE_SIDE_STYLE('',(#730));
#729=SURFACE_STYLE_FILL_AREA(#731);
#730=SURFACE_STYLE_FILL_AREA(#732);
#731=FILL_AREA_STYLE('',(#733));
#732=FILL_AREA_STYLE('',(#734));
#733=FILL_AREA_STYLE_COLOUR('',#735);
#734=FILL_AREA_STYLE_COLOUR('',#736);
#735=COLOUR_RGB('',0.749019607843137,0.749019607843137,0.749019607843137);
#736=COLOUR_RGB('',0.411764705882353,0.411764705882353,0.411764705882353);
ENDSEC;
END-ISO-10303-21;
