ISO-10303-21;
HEADER;
/* Generated by software containing ST-Developer
 * from STEP Tools, Inc. (www.steptools.com) 
 */

FILE_DESCRIPTION(
/* description */ (''),
/* implementation_level */ '2;1');

FILE_NAME(
/* name */ 
'C:\\Users\\mulla\\Documents\\SEI Models\\Inventor Files\\TR\\TR20_stp.
stp',
/* time_stamp */ '2019-07-09T19:19:39-04:00',
/* author */ ('mulla'),
/* organization */ (''),
/* preprocessor_version */ 'ST-DEVELOPER v16.1',
/* originating_system */ 'Autodesk Inventor 2016',
/* authorisation */ '');

FILE_SCHEMA (('AUTOMOTIVE_DESIGN { 1 0 10303 214 3 1 1 }'));
ENDSEC;

DATA;
#10=MECHANICAL_DESIGN_GEOMETRIC_PRESENTATION_REPRESENTATION('',(#13,#15,
#14),#737);
#11=SHAPE_REPRESENTATION_RELATIONSHIP('SRR','None',#746,#12);
#12=ADVANCED_BREP_SHAPE_REPRESENTATION('',(#16,#17,#18),#736);
#13=STYLED_ITEM('',(#755),#16);
#14=STYLED_ITEM('',(#755),#17);
#15=STYLED_ITEM('',(#755),#18);
#16=MANIFOLD_SOLID_BREP('Solid1',#463);
#17=MANIFOLD_SOLID_BREP('Solid3',#464);
#18=MANIFOLD_SOLID_BREP('Solid3',#465);
#19=FACE_OUTER_BOUND('',#45,.T.);
#20=FACE_OUTER_BOUND('',#46,.T.);
#21=FACE_OUTER_BOUND('',#47,.T.);
#22=FACE_OUTER_BOUND('',#48,.T.);
#23=FACE_OUTER_BOUND('',#49,.T.);
#24=FACE_OUTER_BOUND('',#50,.T.);
#25=FACE_OUTER_BOUND('',#51,.T.);
#26=FACE_OUTER_BOUND('',#52,.T.);
#27=FACE_OUTER_BOUND('',#53,.T.);
#28=FACE_OUTER_BOUND('',#54,.T.);
#29=FACE_OUTER_BOUND('',#55,.T.);
#30=FACE_OUTER_BOUND('',#56,.T.);
#31=FACE_OUTER_BOUND('',#57,.T.);
#32=FACE_OUTER_BOUND('',#58,.T.);
#33=FACE_OUTER_BOUND('',#59,.T.);
#34=FACE_OUTER_BOUND('',#60,.T.);
#35=FACE_OUTER_BOUND('',#61,.T.);
#36=FACE_OUTER_BOUND('',#62,.T.);
#37=FACE_OUTER_BOUND('',#63,.T.);
#38=FACE_OUTER_BOUND('',#64,.T.);
#39=FACE_OUTER_BOUND('',#65,.T.);
#40=FACE_OUTER_BOUND('',#66,.T.);
#41=FACE_OUTER_BOUND('',#67,.T.);
#42=FACE_OUTER_BOUND('',#68,.T.);
#43=FACE_OUTER_BOUND('',#69,.T.);
#44=FACE_OUTER_BOUND('',#70,.T.);
#45=EDGE_LOOP('',(#291,#292,#293,#294));
#46=EDGE_LOOP('',(#295,#296,#297,#298));
#47=EDGE_LOOP('',(#299,#300,#301,#302));
#48=EDGE_LOOP('',(#303,#304,#305,#306));
#49=EDGE_LOOP('',(#307,#308,#309,#310));
#50=EDGE_LOOP('',(#311,#312,#313,#314));
#51=EDGE_LOOP('',(#315,#316,#317,#318));
#52=EDGE_LOOP('',(#319,#320,#321,#322));
#53=EDGE_LOOP('',(#323,#324,#325,#326));
#54=EDGE_LOOP('',(#327,#328,#329,#330));
#55=EDGE_LOOP('',(#331,#332,#333,#334));
#56=EDGE_LOOP('',(#335,#336,#337,#338));
#57=EDGE_LOOP('',(#339,#340,#341,#342,#343,#344,#345,#346));
#58=EDGE_LOOP('',(#347,#348,#349,#350));
#59=EDGE_LOOP('',(#351,#352,#353,#354,#355,#356,#357,#358));
#60=EDGE_LOOP('',(#359,#360,#361,#362));
#61=EDGE_LOOP('',(#363,#364,#365,#366));
#62=EDGE_LOOP('',(#367,#368,#369,#370));
#63=EDGE_LOOP('',(#371,#372,#373,#374));
#64=EDGE_LOOP('',(#375,#376,#377,#378));
#65=EDGE_LOOP('',(#379,#380,#381,#382,#383,#384,#385,#386));
#66=EDGE_LOOP('',(#387,#388,#389,#390));
#67=EDGE_LOOP('',(#391,#392,#393,#394,#395,#396,#397,#398));
#68=EDGE_LOOP('',(#399,#400,#401,#402));
#69=EDGE_LOOP('',(#403,#404,#405,#406));
#70=EDGE_LOOP('',(#407,#408,#409,#410));
#71=LINE('',#611,#131);
#72=LINE('',#613,#132);
#73=LINE('',#615,#133);
#74=LINE('',#616,#134);
#75=LINE('',#619,#135);
#76=LINE('',#621,#136);
#77=LINE('',#622,#137);
#78=LINE('',#625,#138);
#79=LINE('',#627,#139);
#80=LINE('',#628,#140);
#81=LINE('',#630,#141);
#82=LINE('',#631,#142);
#83=LINE('',#637,#143);
#84=LINE('',#639,#144);
#85=LINE('',#641,#145);
#86=LINE('',#642,#146);
#87=LINE('',#646,#147);
#88=LINE('',#648,#148);
#89=LINE('',#650,#149);
#90=LINE('',#651,#150);
#91=LINE('',#653,#151);
#92=LINE('',#654,#152);
#93=LINE('',#657,#153);
#94=LINE('',#659,#154);
#95=LINE('',#660,#155);
#96=LINE('',#663,#156);
#97=LINE('',#665,#157);
#98=LINE('',#666,#158);
#99=LINE('',#670,#159);
#100=LINE('',#671,#160);
#101=LINE('',#672,#161);
#102=LINE('',#675,#162);
#103=LINE('',#676,#163);
#104=LINE('',#679,#164);
#105=LINE('',#680,#165);
#106=LINE('',#682,#166);
#107=LINE('',#687,#167);
#108=LINE('',#689,#168);
#109=LINE('',#691,#169);
#110=LINE('',#692,#170);
#111=LINE('',#696,#171);
#112=LINE('',#698,#172);
#113=LINE('',#700,#173);
#114=LINE('',#701,#174);
#115=LINE('',#703,#175);
#116=LINE('',#704,#176);
#117=LINE('',#707,#177);
#118=LINE('',#709,#178);
#119=LINE('',#710,#179);
#120=LINE('',#714,#180);
#121=LINE('',#715,#181);
#122=LINE('',#717,#182);
#123=LINE('',#718,#183);
#124=LINE('',#721,#184);
#125=LINE('',#723,#185);
#126=LINE('',#724,#186);
#127=LINE('',#727,#187);
#128=LINE('',#728,#188);
#129=LINE('',#729,#189);
#130=LINE('',#731,#190);
#131=VECTOR('',#497,16.26);
#132=VECTOR('',#498,3.18);
#133=VECTOR('',#499,16.26);
#134=VECTOR('',#500,3.18);
#135=VECTOR('',#503,10.41);
#136=VECTOR('',#504,10.41);
#137=VECTOR('',#505,3.18);
#138=VECTOR('',#508,16.26);
#139=VECTOR('',#509,16.26);
#140=VECTOR('',#510,3.18);
#141=VECTOR('',#513,10.41);
#142=VECTOR('',#514,10.41);
#143=VECTOR('',#521,0.5);
#144=VECTOR('',#522,9.4);
#145=VECTOR('',#523,0.5);
#146=VECTOR('',#524,9.4);
#147=VECTOR('',#527,0.5);
#148=VECTOR('',#528,9.4);
#149=VECTOR('',#529,0.5);
#150=VECTOR('',#530,9.4);
#151=VECTOR('',#533,0.760000000000001);
#152=VECTOR('',#534,0.760000000000001);
#153=VECTOR('',#537,0.255);
#154=VECTOR('',#538,0.5);
#155=VECTOR('',#539,0.255);
#156=VECTOR('',#542,0.255);
#157=VECTOR('',#543,0.5);
#158=VECTOR('',#544,0.255);
#159=VECTOR('',#547,0.5);
#160=VECTOR('',#548,3.3);
#161=VECTOR('',#549,3.3);
#162=VECTOR('',#552,1.27);
#163=VECTOR('',#553,3.3);
#164=VECTOR('',#556,0.5);
#165=VECTOR('',#557,3.3);
#166=VECTOR('',#560,1.27);
#167=VECTOR('',#565,0.5);
#168=VECTOR('',#566,9.4);
#169=VECTOR('',#567,0.5);
#170=VECTOR('',#568,9.4);
#171=VECTOR('',#571,0.5);
#172=VECTOR('',#572,9.4);
#173=VECTOR('',#573,0.5);
#174=VECTOR('',#574,9.4);
#175=VECTOR('',#577,0.76);
#176=VECTOR('',#578,0.76);
#177=VECTOR('',#581,0.255);
#178=VECTOR('',#582,0.5);
#179=VECTOR('',#583,0.255);
#180=VECTOR('',#586,1.27);
#181=VECTOR('',#587,3.3);
#182=VECTOR('',#588,0.255);
#183=VECTOR('',#589,3.3);
#184=VECTOR('',#592,0.5);
#185=VECTOR('',#593,0.5);
#186=VECTOR('',#594,3.3);
#187=VECTOR('',#597,1.27);
#188=VECTOR('',#598,0.255);
#189=VECTOR('',#599,3.3);
#190=VECTOR('',#602,0.5);
#191=VERTEX_POINT('',#609);
#192=VERTEX_POINT('',#610);
#193=VERTEX_POINT('',#612);
#194=VERTEX_POINT('',#614);
#195=VERTEX_POINT('',#618);
#196=VERTEX_POINT('',#620);
#197=VERTEX_POINT('',#624);
#198=VERTEX_POINT('',#626);
#199=VERTEX_POINT('',#635);
#200=VERTEX_POINT('',#636);
#201=VERTEX_POINT('',#638);
#202=VERTEX_POINT('',#640);
#203=VERTEX_POINT('',#644);
#204=VERTEX_POINT('',#645);
#205=VERTEX_POINT('',#647);
#206=VERTEX_POINT('',#649);
#207=VERTEX_POINT('',#656);
#208=VERTEX_POINT('',#658);
#209=VERTEX_POINT('',#662);
#210=VERTEX_POINT('',#664);
#211=VERTEX_POINT('',#668);
#212=VERTEX_POINT('',#669);
#213=VERTEX_POINT('',#674);
#214=VERTEX_POINT('',#678);
#215=VERTEX_POINT('',#685);
#216=VERTEX_POINT('',#686);
#217=VERTEX_POINT('',#688);
#218=VERTEX_POINT('',#690);
#219=VERTEX_POINT('',#694);
#220=VERTEX_POINT('',#695);
#221=VERTEX_POINT('',#697);
#222=VERTEX_POINT('',#699);
#223=VERTEX_POINT('',#706);
#224=VERTEX_POINT('',#708);
#225=VERTEX_POINT('',#712);
#226=VERTEX_POINT('',#713);
#227=VERTEX_POINT('',#716);
#228=VERTEX_POINT('',#720);
#229=VERTEX_POINT('',#722);
#230=VERTEX_POINT('',#726);
#231=EDGE_CURVE('',#191,#192,#71,.T.);
#232=EDGE_CURVE('',#191,#193,#72,.T.);
#233=EDGE_CURVE('',#194,#193,#73,.T.);
#234=EDGE_CURVE('',#192,#194,#74,.T.);
#235=EDGE_CURVE('',#192,#195,#75,.T.);
#236=EDGE_CURVE('',#196,#194,#76,.T.);
#237=EDGE_CURVE('',#195,#196,#77,.T.);
#238=EDGE_CURVE('',#195,#197,#78,.T.);
#239=EDGE_CURVE('',#198,#196,#79,.T.);
#240=EDGE_CURVE('',#197,#198,#80,.T.);
#241=EDGE_CURVE('',#197,#191,#81,.T.);
#242=EDGE_CURVE('',#193,#198,#82,.T.);
#243=EDGE_CURVE('',#199,#200,#83,.T.);
#244=EDGE_CURVE('',#199,#201,#84,.T.);
#245=EDGE_CURVE('',#202,#201,#85,.T.);
#246=EDGE_CURVE('',#200,#202,#86,.T.);
#247=EDGE_CURVE('',#203,#204,#87,.T.);
#248=EDGE_CURVE('',#203,#205,#88,.T.);
#249=EDGE_CURVE('',#206,#205,#89,.T.);
#250=EDGE_CURVE('',#204,#206,#90,.T.);
#251=EDGE_CURVE('',#201,#206,#91,.T.);
#252=EDGE_CURVE('',#205,#202,#92,.T.);
#253=EDGE_CURVE('',#200,#207,#93,.T.);
#254=EDGE_CURVE('',#207,#208,#94,.T.);
#255=EDGE_CURVE('',#208,#199,#95,.T.);
#256=EDGE_CURVE('',#204,#209,#96,.T.);
#257=EDGE_CURVE('',#209,#210,#97,.T.);
#258=EDGE_CURVE('',#210,#203,#98,.T.);
#259=EDGE_CURVE('',#211,#212,#99,.T.);
#260=EDGE_CURVE('',#212,#208,#100,.T.);
#261=EDGE_CURVE('',#211,#207,#101,.T.);
#262=EDGE_CURVE('',#213,#211,#102,.T.);
#263=EDGE_CURVE('',#213,#210,#103,.T.);
#264=EDGE_CURVE('',#214,#213,#104,.T.);
#265=EDGE_CURVE('',#214,#209,#105,.T.);
#266=EDGE_CURVE('',#212,#214,#106,.T.);
#267=EDGE_CURVE('',#215,#216,#107,.T.);
#268=EDGE_CURVE('',#215,#217,#108,.T.);
#269=EDGE_CURVE('',#218,#217,#109,.T.);
#270=EDGE_CURVE('',#216,#218,#110,.T.);
#271=EDGE_CURVE('',#219,#220,#111,.T.);
#272=EDGE_CURVE('',#219,#221,#112,.T.);
#273=EDGE_CURVE('',#222,#221,#113,.T.);
#274=EDGE_CURVE('',#220,#222,#114,.T.);
#275=EDGE_CURVE('',#221,#218,#115,.T.);
#276=EDGE_CURVE('',#217,#222,#116,.T.);
#277=EDGE_CURVE('',#220,#223,#117,.T.);
#278=EDGE_CURVE('',#223,#224,#118,.T.);
#279=EDGE_CURVE('',#224,#219,#119,.T.);
#280=EDGE_CURVE('',#225,#226,#120,.T.);
#281=EDGE_CURVE('',#226,#223,#121,.T.);
#282=EDGE_CURVE('',#227,#215,#122,.T.);
#283=EDGE_CURVE('',#225,#227,#123,.T.);
#284=EDGE_CURVE('',#228,#225,#124,.T.);
#285=EDGE_CURVE('',#229,#227,#125,.T.);
#286=EDGE_CURVE('',#228,#229,#126,.T.);
#287=EDGE_CURVE('',#230,#228,#127,.T.);
#288=EDGE_CURVE('',#216,#229,#128,.T.);
#289=EDGE_CURVE('',#230,#224,#129,.T.);
#290=EDGE_CURVE('',#226,#230,#130,.T.);
#291=ORIENTED_EDGE('',*,*,#231,.F.);
#292=ORIENTED_EDGE('',*,*,#232,.T.);
#293=ORIENTED_EDGE('',*,*,#233,.F.);
#294=ORIENTED_EDGE('',*,*,#234,.F.);
#295=ORIENTED_EDGE('',*,*,#235,.F.);
#296=ORIENTED_EDGE('',*,*,#234,.T.);
#297=ORIENTED_EDGE('',*,*,#236,.F.);
#298=ORIENTED_EDGE('',*,*,#237,.F.);
#299=ORIENTED_EDGE('',*,*,#238,.F.);
#300=ORIENTED_EDGE('',*,*,#237,.T.);
#301=ORIENTED_EDGE('',*,*,#239,.F.);
#302=ORIENTED_EDGE('',*,*,#240,.F.);
#303=ORIENTED_EDGE('',*,*,#241,.F.);
#304=ORIENTED_EDGE('',*,*,#240,.T.);
#305=ORIENTED_EDGE('',*,*,#242,.F.);
#306=ORIENTED_EDGE('',*,*,#232,.F.);
#307=ORIENTED_EDGE('',*,*,#241,.T.);
#308=ORIENTED_EDGE('',*,*,#231,.T.);
#309=ORIENTED_EDGE('',*,*,#235,.T.);
#310=ORIENTED_EDGE('',*,*,#238,.T.);
#311=ORIENTED_EDGE('',*,*,#242,.T.);
#312=ORIENTED_EDGE('',*,*,#239,.T.);
#313=ORIENTED_EDGE('',*,*,#236,.T.);
#314=ORIENTED_EDGE('',*,*,#233,.T.);
#315=ORIENTED_EDGE('',*,*,#243,.F.);
#316=ORIENTED_EDGE('',*,*,#244,.T.);
#317=ORIENTED_EDGE('',*,*,#245,.F.);
#318=ORIENTED_EDGE('',*,*,#246,.F.);
#319=ORIENTED_EDGE('',*,*,#247,.F.);
#320=ORIENTED_EDGE('',*,*,#248,.T.);
#321=ORIENTED_EDGE('',*,*,#249,.F.);
#322=ORIENTED_EDGE('',*,*,#250,.F.);
#323=ORIENTED_EDGE('',*,*,#251,.T.);
#324=ORIENTED_EDGE('',*,*,#249,.T.);
#325=ORIENTED_EDGE('',*,*,#252,.T.);
#326=ORIENTED_EDGE('',*,*,#245,.T.);
#327=ORIENTED_EDGE('',*,*,#243,.T.);
#328=ORIENTED_EDGE('',*,*,#253,.T.);
#329=ORIENTED_EDGE('',*,*,#254,.T.);
#330=ORIENTED_EDGE('',*,*,#255,.T.);
#331=ORIENTED_EDGE('',*,*,#247,.T.);
#332=ORIENTED_EDGE('',*,*,#256,.T.);
#333=ORIENTED_EDGE('',*,*,#257,.T.);
#334=ORIENTED_EDGE('',*,*,#258,.T.);
#335=ORIENTED_EDGE('',*,*,#259,.T.);
#336=ORIENTED_EDGE('',*,*,#260,.T.);
#337=ORIENTED_EDGE('',*,*,#254,.F.);
#338=ORIENTED_EDGE('',*,*,#261,.F.);
#339=ORIENTED_EDGE('',*,*,#262,.T.);
#340=ORIENTED_EDGE('',*,*,#261,.T.);
#341=ORIENTED_EDGE('',*,*,#253,.F.);
#342=ORIENTED_EDGE('',*,*,#246,.T.);
#343=ORIENTED_EDGE('',*,*,#252,.F.);
#344=ORIENTED_EDGE('',*,*,#248,.F.);
#345=ORIENTED_EDGE('',*,*,#258,.F.);
#346=ORIENTED_EDGE('',*,*,#263,.F.);
#347=ORIENTED_EDGE('',*,*,#264,.T.);
#348=ORIENTED_EDGE('',*,*,#263,.T.);
#349=ORIENTED_EDGE('',*,*,#257,.F.);
#350=ORIENTED_EDGE('',*,*,#265,.F.);
#351=ORIENTED_EDGE('',*,*,#266,.T.);
#352=ORIENTED_EDGE('',*,*,#265,.T.);
#353=ORIENTED_EDGE('',*,*,#256,.F.);
#354=ORIENTED_EDGE('',*,*,#250,.T.);
#355=ORIENTED_EDGE('',*,*,#251,.F.);
#356=ORIENTED_EDGE('',*,*,#244,.F.);
#357=ORIENTED_EDGE('',*,*,#255,.F.);
#358=ORIENTED_EDGE('',*,*,#260,.F.);
#359=ORIENTED_EDGE('',*,*,#266,.F.);
#360=ORIENTED_EDGE('',*,*,#259,.F.);
#361=ORIENTED_EDGE('',*,*,#262,.F.);
#362=ORIENTED_EDGE('',*,*,#264,.F.);
#363=ORIENTED_EDGE('',*,*,#267,.F.);
#364=ORIENTED_EDGE('',*,*,#268,.T.);
#365=ORIENTED_EDGE('',*,*,#269,.F.);
#366=ORIENTED_EDGE('',*,*,#270,.F.);
#367=ORIENTED_EDGE('',*,*,#271,.F.);
#368=ORIENTED_EDGE('',*,*,#272,.T.);
#369=ORIENTED_EDGE('',*,*,#273,.F.);
#370=ORIENTED_EDGE('',*,*,#274,.F.);
#371=ORIENTED_EDGE('',*,*,#273,.T.);
#372=ORIENTED_EDGE('',*,*,#275,.T.);
#373=ORIENTED_EDGE('',*,*,#269,.T.);
#374=ORIENTED_EDGE('',*,*,#276,.T.);
#375=ORIENTED_EDGE('',*,*,#271,.T.);
#376=ORIENTED_EDGE('',*,*,#277,.T.);
#377=ORIENTED_EDGE('',*,*,#278,.T.);
#378=ORIENTED_EDGE('',*,*,#279,.T.);
#379=ORIENTED_EDGE('',*,*,#280,.T.);
#380=ORIENTED_EDGE('',*,*,#281,.T.);
#381=ORIENTED_EDGE('',*,*,#277,.F.);
#382=ORIENTED_EDGE('',*,*,#274,.T.);
#383=ORIENTED_EDGE('',*,*,#276,.F.);
#384=ORIENTED_EDGE('',*,*,#268,.F.);
#385=ORIENTED_EDGE('',*,*,#282,.F.);
#386=ORIENTED_EDGE('',*,*,#283,.F.);
#387=ORIENTED_EDGE('',*,*,#284,.T.);
#388=ORIENTED_EDGE('',*,*,#283,.T.);
#389=ORIENTED_EDGE('',*,*,#285,.F.);
#390=ORIENTED_EDGE('',*,*,#286,.F.);
#391=ORIENTED_EDGE('',*,*,#287,.T.);
#392=ORIENTED_EDGE('',*,*,#286,.T.);
#393=ORIENTED_EDGE('',*,*,#288,.F.);
#394=ORIENTED_EDGE('',*,*,#270,.T.);
#395=ORIENTED_EDGE('',*,*,#275,.F.);
#396=ORIENTED_EDGE('',*,*,#272,.F.);
#397=ORIENTED_EDGE('',*,*,#279,.F.);
#398=ORIENTED_EDGE('',*,*,#289,.F.);
#399=ORIENTED_EDGE('',*,*,#290,.T.);
#400=ORIENTED_EDGE('',*,*,#289,.T.);
#401=ORIENTED_EDGE('',*,*,#278,.F.);
#402=ORIENTED_EDGE('',*,*,#281,.F.);
#403=ORIENTED_EDGE('',*,*,#267,.T.);
#404=ORIENTED_EDGE('',*,*,#288,.T.);
#405=ORIENTED_EDGE('',*,*,#285,.T.);
#406=ORIENTED_EDGE('',*,*,#282,.T.);
#407=ORIENTED_EDGE('',*,*,#290,.F.);
#408=ORIENTED_EDGE('',*,*,#280,.F.);
#409=ORIENTED_EDGE('',*,*,#284,.F.);
#410=ORIENTED_EDGE('',*,*,#287,.F.);
#411=PLANE('',#467);
#412=PLANE('',#468);
#413=PLANE('',#469);
#414=PLANE('',#470);
#415=PLANE('',#471);
#416=PLANE('',#472);
#417=PLANE('',#473);
#418=PLANE('',#474);
#419=PLANE('',#475);
#420=PLANE('',#476);
#421=PLANE('',#477);
#422=PLANE('',#478);
#423=PLANE('',#479);
#424=PLANE('',#480);
#425=PLANE('',#481);
#426=PLANE('',#482);
#427=PLANE('',#483);
#428=PLANE('',#484);
#429=PLANE('',#485);
#430=PLANE('',#486);
#431=PLANE('',#487);
#432=PLANE('',#488);
#433=PLANE('',#489);
#434=PLANE('',#490);
#435=PLANE('',#491);
#436=PLANE('',#492);
#437=ADVANCED_FACE('',(#19),#411,.T.);
#438=ADVANCED_FACE('',(#20),#412,.T.);
#439=ADVANCED_FACE('',(#21),#413,.T.);
#440=ADVANCED_FACE('',(#22),#414,.T.);
#441=ADVANCED_FACE('',(#23),#415,.F.);
#442=ADVANCED_FACE('',(#24),#416,.T.);
#443=ADVANCED_FACE('',(#25),#417,.T.);
#444=ADVANCED_FACE('',(#26),#418,.T.);
#445=ADVANCED_FACE('',(#27),#419,.T.);
#446=ADVANCED_FACE('',(#28),#420,.T.);
#447=ADVANCED_FACE('',(#29),#421,.T.);
#448=ADVANCED_FACE('',(#30),#422,.T.);
#449=ADVANCED_FACE('',(#31),#423,.T.);
#450=ADVANCED_FACE('',(#32),#424,.T.);
#451=ADVANCED_FACE('',(#33),#425,.T.);
#452=ADVANCED_FACE('',(#34),#426,.T.);
#453=ADVANCED_FACE('',(#35),#427,.T.);
#454=ADVANCED_FACE('',(#36),#428,.T.);
#455=ADVANCED_FACE('',(#37),#429,.T.);
#456=ADVANCED_FACE('',(#38),#430,.T.);
#457=ADVANCED_FACE('',(#39),#431,.T.);
#458=ADVANCED_FACE('',(#40),#432,.T.);
#459=ADVANCED_FACE('',(#41),#433,.T.);
#460=ADVANCED_FACE('',(#42),#434,.T.);
#461=ADVANCED_FACE('',(#43),#435,.T.);
#462=ADVANCED_FACE('',(#44),#436,.T.);
#463=CLOSED_SHELL('',(#437,#438,#439,#440,#441,#442));
#464=CLOSED_SHELL('',(#443,#444,#445,#446,#447,#448,#449,#450,#451,#452));
#465=CLOSED_SHELL('',(#453,#454,#455,#456,#457,#458,#459,#460,#461,#462));
#466=AXIS2_PLACEMENT_3D('placement',#607,#493,#494);
#467=AXIS2_PLACEMENT_3D('',#608,#495,#496);
#468=AXIS2_PLACEMENT_3D('',#617,#501,#502);
#469=AXIS2_PLACEMENT_3D('',#623,#506,#507);
#470=AXIS2_PLACEMENT_3D('',#629,#511,#512);
#471=AXIS2_PLACEMENT_3D('',#632,#515,#516);
#472=AXIS2_PLACEMENT_3D('',#633,#517,#518);
#473=AXIS2_PLACEMENT_3D('',#634,#519,#520);
#474=AXIS2_PLACEMENT_3D('',#643,#525,#526);
#475=AXIS2_PLACEMENT_3D('',#652,#531,#532);
#476=AXIS2_PLACEMENT_3D('',#655,#535,#536);
#477=AXIS2_PLACEMENT_3D('',#661,#540,#541);
#478=AXIS2_PLACEMENT_3D('',#667,#545,#546);
#479=AXIS2_PLACEMENT_3D('',#673,#550,#551);
#480=AXIS2_PLACEMENT_3D('',#677,#554,#555);
#481=AXIS2_PLACEMENT_3D('',#681,#558,#559);
#482=AXIS2_PLACEMENT_3D('',#683,#561,#562);
#483=AXIS2_PLACEMENT_3D('',#684,#563,#564);
#484=AXIS2_PLACEMENT_3D('',#693,#569,#570);
#485=AXIS2_PLACEMENT_3D('',#702,#575,#576);
#486=AXIS2_PLACEMENT_3D('',#705,#579,#580);
#487=AXIS2_PLACEMENT_3D('',#711,#584,#585);
#488=AXIS2_PLACEMENT_3D('',#719,#590,#591);
#489=AXIS2_PLACEMENT_3D('',#725,#595,#596);
#490=AXIS2_PLACEMENT_3D('',#730,#600,#601);
#491=AXIS2_PLACEMENT_3D('',#732,#603,#604);
#492=AXIS2_PLACEMENT_3D('',#733,#605,#606);
#493=DIRECTION('axis',(0.,0.,1.));
#494=DIRECTION('refdir',(1.,0.,0.));
#495=DIRECTION('center_axis',(1.,0.,0.));
#496=DIRECTION('ref_axis',(0.,1.,0.));
#497=DIRECTION('',(0.,-1.,0.));
#498=DIRECTION('',(0.,0.,1.));
#499=DIRECTION('',(0.,1.,0.));
#500=DIRECTION('',(0.,0.,1.));
#501=DIRECTION('center_axis',(0.,-1.,0.));
#502=DIRECTION('ref_axis',(1.,0.,0.));
#503=DIRECTION('',(-1.,0.,0.));
#504=DIRECTION('',(1.,0.,0.));
#505=DIRECTION('',(0.,0.,1.));
#506=DIRECTION('center_axis',(-1.,0.,0.));
#507=DIRECTION('ref_axis',(0.,-1.,0.));
#508=DIRECTION('',(0.,1.,0.));
#509=DIRECTION('',(0.,-1.,0.));
#510=DIRECTION('',(0.,0.,1.));
#511=DIRECTION('center_axis',(0.,1.,0.));
#512=DIRECTION('ref_axis',(-1.,0.,0.));
#513=DIRECTION('',(1.,0.,0.));
#514=DIRECTION('',(-1.,0.,0.));
#515=DIRECTION('center_axis',(0.,0.,1.));
#516=DIRECTION('ref_axis',(1.,0.,0.));
#517=DIRECTION('center_axis',(0.,0.,1.));
#518=DIRECTION('ref_axis',(1.,0.,0.));
#519=DIRECTION('center_axis',(1.,0.,0.));
#520=DIRECTION('ref_axis',(0.,0.,1.));
#521=DIRECTION('',(0.,0.,-1.));
#522=DIRECTION('',(0.,-1.,0.));
#523=DIRECTION('',(0.,0.,1.));
#524=DIRECTION('',(0.,-1.,0.));
#525=DIRECTION('center_axis',(-1.,0.,0.));
#526=DIRECTION('ref_axis',(0.,0.,-1.));
#527=DIRECTION('',(0.,0.,1.));
#528=DIRECTION('',(0.,-1.,0.));
#529=DIRECTION('',(0.,0.,-1.));
#530=DIRECTION('',(0.,-1.,0.));
#531=DIRECTION('center_axis',(0.,-1.,0.));
#532=DIRECTION('ref_axis',(0.,0.,-1.));
#533=DIRECTION('',(-1.,0.,0.));
#534=DIRECTION('',(1.,0.,0.));
#535=DIRECTION('center_axis',(0.,-1.,0.));
#536=DIRECTION('ref_axis',(0.,0.,-1.));
#537=DIRECTION('',(1.,0.,0.));
#538=DIRECTION('',(0.,0.,1.));
#539=DIRECTION('',(-1.,0.,0.));
#540=DIRECTION('center_axis',(0.,-1.,0.));
#541=DIRECTION('ref_axis',(0.,0.,-1.));
#542=DIRECTION('',(-1.,0.,0.));
#543=DIRECTION('',(0.,0.,-1.));
#544=DIRECTION('',(1.,0.,0.));
#545=DIRECTION('center_axis',(1.,0.,0.));
#546=DIRECTION('ref_axis',(0.,0.,1.));
#547=DIRECTION('',(0.,0.,1.));
#548=DIRECTION('',(0.,-1.,0.));
#549=DIRECTION('',(0.,-1.,0.));
#550=DIRECTION('center_axis',(0.,0.,-1.));
#551=DIRECTION('ref_axis',(1.,0.,0.));
#552=DIRECTION('',(1.,0.,0.));
#553=DIRECTION('',(0.,-1.,0.));
#554=DIRECTION('center_axis',(-1.,0.,0.));
#555=DIRECTION('ref_axis',(0.,0.,-1.));
#556=DIRECTION('',(0.,0.,-1.));
#557=DIRECTION('',(0.,-1.,0.));
#558=DIRECTION('center_axis',(0.,0.,1.));
#559=DIRECTION('ref_axis',(-1.,0.,0.));
#560=DIRECTION('',(-1.,0.,0.));
#561=DIRECTION('center_axis',(0.,1.,0.));
#562=DIRECTION('ref_axis',(0.,0.,1.));
#563=DIRECTION('center_axis',(1.,0.,0.));
#564=DIRECTION('ref_axis',(0.,0.,1.));
#565=DIRECTION('',(0.,0.,-1.));
#566=DIRECTION('',(0.,-1.,0.));
#567=DIRECTION('',(0.,0.,1.));
#568=DIRECTION('',(0.,-1.,0.));
#569=DIRECTION('center_axis',(-1.,0.,0.));
#570=DIRECTION('ref_axis',(0.,0.,-1.));
#571=DIRECTION('',(0.,0.,1.));
#572=DIRECTION('',(0.,-1.,0.));
#573=DIRECTION('',(0.,0.,-1.));
#574=DIRECTION('',(0.,-1.,0.));
#575=DIRECTION('center_axis',(0.,-1.,0.));
#576=DIRECTION('ref_axis',(0.,0.,-1.));
#577=DIRECTION('',(1.,0.,0.));
#578=DIRECTION('',(-1.,0.,0.));
#579=DIRECTION('center_axis',(0.,-1.,0.));
#580=DIRECTION('ref_axis',(0.,0.,-1.));
#581=DIRECTION('',(-1.,0.,0.));
#582=DIRECTION('',(0.,0.,-1.));
#583=DIRECTION('',(1.,0.,0.));
#584=DIRECTION('center_axis',(0.,0.,1.));
#585=DIRECTION('ref_axis',(-1.,0.,0.));
#586=DIRECTION('',(-1.,0.,0.));
#587=DIRECTION('',(0.,-1.,0.));
#588=DIRECTION('',(-1.,0.,0.));
#589=DIRECTION('',(0.,-1.,0.));
#590=DIRECTION('center_axis',(1.,0.,0.));
#591=DIRECTION('ref_axis',(0.,0.,1.));
#592=DIRECTION('',(0.,0.,1.));
#593=DIRECTION('',(0.,0.,1.));
#594=DIRECTION('',(0.,-1.,0.));
#595=DIRECTION('center_axis',(0.,0.,-1.));
#596=DIRECTION('ref_axis',(1.,0.,0.));
#597=DIRECTION('',(1.,0.,0.));
#598=DIRECTION('',(1.,0.,0.));
#599=DIRECTION('',(0.,-1.,0.));
#600=DIRECTION('center_axis',(-1.,0.,0.));
#601=DIRECTION('ref_axis',(0.,0.,-1.));
#602=DIRECTION('',(0.,0.,-1.));
#603=DIRECTION('center_axis',(0.,-1.,0.));
#604=DIRECTION('ref_axis',(0.,0.,-1.));
#605=DIRECTION('center_axis',(0.,1.,0.));
#606=DIRECTION('ref_axis',(0.,0.,1.));
#607=CARTESIAN_POINT('',(0.,0.,0.));
#608=CARTESIAN_POINT('Origin',(10.41,-16.26,0.));
#609=CARTESIAN_POINT('',(10.41,0.,0.));
#610=CARTESIAN_POINT('',(10.41,-16.26,0.));
#611=CARTESIAN_POINT('',(10.41,0.,0.));
#612=CARTESIAN_POINT('',(10.41,0.,3.18));
#613=CARTESIAN_POINT('',(10.41,0.,0.));
#614=CARTESIAN_POINT('',(10.41,-16.26,3.18));
#615=CARTESIAN_POINT('',(10.41,0.,3.18));
#616=CARTESIAN_POINT('',(10.41,-16.26,0.));
#617=CARTESIAN_POINT('Origin',(0.,-16.26,0.));
#618=CARTESIAN_POINT('',(0.,-16.26,0.));
#619=CARTESIAN_POINT('',(10.41,-16.26,0.));
#620=CARTESIAN_POINT('',(0.,-16.26,3.18));
#621=CARTESIAN_POINT('',(10.41,-16.26,3.18));
#622=CARTESIAN_POINT('',(0.,-16.26,0.));
#623=CARTESIAN_POINT('Origin',(0.,0.,0.));
#624=CARTESIAN_POINT('',(0.,0.,0.));
#625=CARTESIAN_POINT('',(0.,-16.26,0.));
#626=CARTESIAN_POINT('',(0.,0.,3.18));
#627=CARTESIAN_POINT('',(0.,-16.26,3.18));
#628=CARTESIAN_POINT('',(0.,0.,0.));
#629=CARTESIAN_POINT('Origin',(10.41,0.,0.));
#630=CARTESIAN_POINT('',(0.,0.,0.));
#631=CARTESIAN_POINT('',(0.,0.,3.18));
#632=CARTESIAN_POINT('Origin',(5.205,-8.13,0.));
#633=CARTESIAN_POINT('Origin',(5.205,-8.13,3.18));
#634=CARTESIAN_POINT('Origin',(8.125,-19.56,0.9));
#635=CARTESIAN_POINT('',(8.125,-19.56,1.4));
#636=CARTESIAN_POINT('',(8.125,-19.56,0.9));
#637=CARTESIAN_POINT('',(8.125,-19.56,1.025));
#638=CARTESIAN_POINT('',(8.125,-28.96,1.4));
#639=CARTESIAN_POINT('',(8.125,-19.56,1.4));
#640=CARTESIAN_POINT('',(8.125,-28.96,0.9));
#641=CARTESIAN_POINT('',(8.125,-28.96,0.9));
#642=CARTESIAN_POINT('',(8.125,-19.56,0.9));
#643=CARTESIAN_POINT('Origin',(7.365,-19.56,1.4));
#644=CARTESIAN_POINT('',(7.365,-19.56,0.9));
#645=CARTESIAN_POINT('',(7.365,-19.56,1.4));
#646=CARTESIAN_POINT('',(7.365,-19.56,1.275));
#647=CARTESIAN_POINT('',(7.365,-28.96,0.9));
#648=CARTESIAN_POINT('',(7.365,-19.56,0.9));
#649=CARTESIAN_POINT('',(7.365,-28.96,1.4));
#650=CARTESIAN_POINT('',(7.365,-28.96,1.4));
#651=CARTESIAN_POINT('',(7.365,-19.56,1.4));
#652=CARTESIAN_POINT('Origin',(7.745,-28.96,1.15));
#653=CARTESIAN_POINT('',(8.125,-28.96,1.4));
#654=CARTESIAN_POINT('',(7.365,-28.96,0.9));
#655=CARTESIAN_POINT('Origin',(7.745,-19.56,1.15));
#656=CARTESIAN_POINT('',(8.38,-19.56,0.9));
#657=CARTESIAN_POINT('',(7.11,-19.56,0.9));
#658=CARTESIAN_POINT('',(8.38,-19.56,1.4));
#659=CARTESIAN_POINT('',(8.38,-19.56,0.9));
#660=CARTESIAN_POINT('',(8.38,-19.56,1.4));
#661=CARTESIAN_POINT('Origin',(7.745,-19.56,1.15));
#662=CARTESIAN_POINT('',(7.11,-19.56,1.4));
#663=CARTESIAN_POINT('',(8.38,-19.56,1.4));
#664=CARTESIAN_POINT('',(7.11,-19.56,0.9));
#665=CARTESIAN_POINT('',(7.11,-19.56,1.4));
#666=CARTESIAN_POINT('',(7.11,-19.56,0.9));
#667=CARTESIAN_POINT('Origin',(8.38,-16.26,0.9));
#668=CARTESIAN_POINT('',(8.38,-16.26,0.9));
#669=CARTESIAN_POINT('',(8.38,-16.26,1.4));
#670=CARTESIAN_POINT('',(8.38,-16.26,0.9));
#671=CARTESIAN_POINT('',(8.38,-16.26,1.4));
#672=CARTESIAN_POINT('',(8.38,-16.26,0.9));
#673=CARTESIAN_POINT('Origin',(7.11,-16.26,0.9));
#674=CARTESIAN_POINT('',(7.11,-16.26,0.9));
#675=CARTESIAN_POINT('',(7.11,-16.26,0.9));
#676=CARTESIAN_POINT('',(7.11,-16.26,0.9));
#677=CARTESIAN_POINT('Origin',(7.11,-16.26,1.4));
#678=CARTESIAN_POINT('',(7.11,-16.26,1.4));
#679=CARTESIAN_POINT('',(7.11,-16.26,1.4));
#680=CARTESIAN_POINT('',(7.11,-16.26,1.4));
#681=CARTESIAN_POINT('Origin',(8.38,-16.26,1.4));
#682=CARTESIAN_POINT('',(8.38,-16.26,1.4));
#683=CARTESIAN_POINT('Origin',(7.745,-16.26,1.15));
#684=CARTESIAN_POINT('Origin',(3.045,-19.56,0.9));
#685=CARTESIAN_POINT('',(3.045,-19.56,1.4));
#686=CARTESIAN_POINT('',(3.045,-19.56,0.9));
#687=CARTESIAN_POINT('',(3.045,-19.56,1.025));
#688=CARTESIAN_POINT('',(3.045,-28.96,1.4));
#689=CARTESIAN_POINT('',(3.045,-19.56,1.4));
#690=CARTESIAN_POINT('',(3.045,-28.96,0.9));
#691=CARTESIAN_POINT('',(3.045,-28.96,0.9));
#692=CARTESIAN_POINT('',(3.045,-19.56,0.9));
#693=CARTESIAN_POINT('Origin',(2.285,-19.56,1.4));
#694=CARTESIAN_POINT('',(2.285,-19.56,0.9));
#695=CARTESIAN_POINT('',(2.285,-19.56,1.4));
#696=CARTESIAN_POINT('',(2.285,-19.56,1.275));
#697=CARTESIAN_POINT('',(2.285,-28.96,0.9));
#698=CARTESIAN_POINT('',(2.285,-19.56,0.9));
#699=CARTESIAN_POINT('',(2.285,-28.96,1.4));
#700=CARTESIAN_POINT('',(2.285,-28.96,1.4));
#701=CARTESIAN_POINT('',(2.285,-19.56,1.4));
#702=CARTESIAN_POINT('Origin',(2.665,-28.96,1.15));
#703=CARTESIAN_POINT('',(2.285,-28.96,0.9));
#704=CARTESIAN_POINT('',(3.045,-28.96,1.4));
#705=CARTESIAN_POINT('Origin',(2.665,-19.56,1.15));
#706=CARTESIAN_POINT('',(2.03,-19.56,1.4));
#707=CARTESIAN_POINT('',(3.3,-19.56,1.4));
#708=CARTESIAN_POINT('',(2.03,-19.56,0.9));
#709=CARTESIAN_POINT('',(2.03,-19.56,1.4));
#710=CARTESIAN_POINT('',(2.03,-19.56,0.9));
#711=CARTESIAN_POINT('Origin',(3.3,-16.26,1.4));
#712=CARTESIAN_POINT('',(3.3,-16.26,1.4));
#713=CARTESIAN_POINT('',(2.03,-16.26,1.4));
#714=CARTESIAN_POINT('',(3.3,-16.26,1.4));
#715=CARTESIAN_POINT('',(2.03,-16.26,1.4));
#716=CARTESIAN_POINT('',(3.3,-19.56,1.4));
#717=CARTESIAN_POINT('',(3.3,-19.56,1.4));
#718=CARTESIAN_POINT('',(3.3,-16.26,1.4));
#719=CARTESIAN_POINT('Origin',(3.3,-16.26,0.9));
#720=CARTESIAN_POINT('',(3.3,-16.26,0.9));
#721=CARTESIAN_POINT('',(3.3,-16.26,0.9));
#722=CARTESIAN_POINT('',(3.3,-19.56,0.9));
#723=CARTESIAN_POINT('',(3.3,-19.56,0.9));
#724=CARTESIAN_POINT('',(3.3,-16.26,0.9));
#725=CARTESIAN_POINT('Origin',(2.03,-16.26,0.9));
#726=CARTESIAN_POINT('',(2.03,-16.26,0.9));
#727=CARTESIAN_POINT('',(2.03,-16.26,0.9));
#728=CARTESIAN_POINT('',(2.03,-19.56,0.9));
#729=CARTESIAN_POINT('',(2.03,-16.26,0.9));
#730=CARTESIAN_POINT('Origin',(2.03,-16.26,1.4));
#731=CARTESIAN_POINT('',(2.03,-16.26,1.4));
#732=CARTESIAN_POINT('Origin',(2.665,-19.56,1.15));
#733=CARTESIAN_POINT('Origin',(2.665,-16.26,1.15));
#734=UNCERTAINTY_MEASURE_WITH_UNIT(LENGTH_MEASURE(0.01),#738,
'DISTANCE_ACCURACY_VALUE',
'Maximum model space distance between geometric entities at asserted c
onnectivities');
#735=UNCERTAINTY_MEASURE_WITH_UNIT(LENGTH_MEASURE(1.E-6),#738,
'DISTANCE_ACCURACY_VALUE',
'Maximum model space distance between geometric entities at asserted c
onnectivities');
#736=(
GEOMETRIC_REPRESENTATION_CONTEXT(3)
GLOBAL_UNCERTAINTY_ASSIGNED_CONTEXT((#734))
GLOBAL_UNIT_ASSIGNED_CONTEXT((#738,#741,#739))
REPRESENTATION_CONTEXT('','3D')
);
#737=(
GEOMETRIC_REPRESENTATION_CONTEXT(3)
GLOBAL_UNCERTAINTY_ASSIGNED_CONTEXT((#735))
GLOBAL_UNIT_ASSIGNED_CONTEXT((#738,#741,#739))
REPRESENTATION_CONTEXT('','3D')
);
#738=(
LENGTH_UNIT()
NAMED_UNIT(*)
SI_UNIT(.MILLI.,.METRE.)
);
#739=(
NAMED_UNIT(*)
SI_UNIT($,.STERADIAN.)
SOLID_ANGLE_UNIT()
);
#740=DIMENSIONAL_EXPONENTS(0.,0.,0.,0.,0.,0.,0.);
#741=(
CONVERSION_BASED_UNIT('degree',#743)
NAMED_UNIT(#740)
PLANE_ANGLE_UNIT()
);
#742=(
NAMED_UNIT(*)
PLANE_ANGLE_UNIT()
SI_UNIT($,.RADIAN.)
);
#743=PLANE_ANGLE_MEASURE_WITH_UNIT(PLANE_ANGLE_MEASURE(0.01745329252),#742);
#744=SHAPE_DEFINITION_REPRESENTATION(#745,#746);
#745=PRODUCT_DEFINITION_SHAPE('',$,#748);
#746=SHAPE_REPRESENTATION('',(#466),#736);
#747=PRODUCT_DEFINITION_CONTEXT('part definition',#752,'design');
#748=PRODUCT_DEFINITION('TR20','TR20',#749,#747);
#749=PRODUCT_DEFINITION_FORMATION('',$,#754);
#750=PRODUCT_RELATED_PRODUCT_CATEGORY('TR20','TR20',(#754));
#751=APPLICATION_PROTOCOL_DEFINITION('international standard',
'automotive_design',2009,#752);
#752=APPLICATION_CONTEXT(
'Core Data for Automotive Mechanical Design Process');
#753=PRODUCT_CONTEXT('part definition',#752,'mechanical');
#754=PRODUCT('TR20','TR20',$,(#753));
#755=PRESENTATION_STYLE_ASSIGNMENT((#756));
#756=SURFACE_STYLE_USAGE(.BOTH.,#757);
#757=SURFACE_SIDE_STYLE('',(#758));
#758=SURFACE_STYLE_FILL_AREA(#759);
#759=FILL_AREA_STYLE('',(#760));
#760=FILL_AREA_STYLE_COLOUR('',#761);
#761=COLOUR_RGB('',0.749019607843137,0.749019607843137,0.749019607843137);
ENDSEC;
END-ISO-10303-21;
