ISO-10303-21;
HEADER;
/* Generated by software containing ST-Developer
 * from STEP Tools, Inc. (www.steptools.com) 
 */

FILE_DESCRIPTION(
/* description */ (''),
/* implementation_level */ '2;1');

FILE_NAME(
/* name */ 
'C:\\Users\\mulla\\Documents\\SEI Models\\Inventor Files\\WW_MWW_NWW_W
WS\\3D\\WW2A_NWW2A_stp.stp',
/* time_stamp */ '2019-07-10T21:32:33-04:00',
/* author */ ('mulla'),
/* organization */ (''),
/* preprocessor_version */ 'ST-DEVELOPER v16.1',
/* originating_system */ 'Autodesk Inventor 2016',
/* authorisation */ '');

FILE_SCHEMA (('AUTOMOTIVE_DESIGN { 1 0 10303 214 3 1 1 }'));
ENDSEC;

DATA;
#10=MECHANICAL_DESIGN_GEOMETRIC_PRESENTATION_REPRESENTATION('',(#82,#81,
#79,#80,#89,#90,#84,#87,#88,#86,#85,#83),#176);
#11=SHAPE_REPRESENTATION_RELATIONSHIP('SRR','None',#185,#12);
#12=ADVANCED_BREP_SHAPE_REPRESENTATION('',(#13,#14,#15),#175);
#13=MANIFOLD_SOLID_BREP('Solid1',#100);
#14=MANIFOLD_SOLID_BREP('Solid2',#101);
#15=MANIFOLD_SOLID_BREP('Solid3',#102);
#16=PLANE('',#107);
#17=PLANE('',#108);
#18=PLANE('',#112);
#19=PLANE('',#113);
#20=PLANE('',#117);
#21=PLANE('',#118);
#22=FACE_BOUND('',#35,.T.);
#23=FACE_BOUND('',#39,.T.);
#24=FACE_BOUND('',#43,.T.);
#25=FACE_OUTER_BOUND('',#34,.T.);
#26=FACE_OUTER_BOUND('',#36,.T.);
#27=FACE_OUTER_BOUND('',#37,.T.);
#28=FACE_OUTER_BOUND('',#38,.T.);
#29=FACE_OUTER_BOUND('',#40,.T.);
#30=FACE_OUTER_BOUND('',#41,.T.);
#31=FACE_OUTER_BOUND('',#42,.T.);
#32=FACE_OUTER_BOUND('',#44,.T.);
#33=FACE_OUTER_BOUND('',#45,.T.);
#34=EDGE_LOOP('',(#64));
#35=EDGE_LOOP('',(#65));
#36=EDGE_LOOP('',(#66));
#37=EDGE_LOOP('',(#67));
#38=EDGE_LOOP('',(#68));
#39=EDGE_LOOP('',(#69));
#40=EDGE_LOOP('',(#70));
#41=EDGE_LOOP('',(#71));
#42=EDGE_LOOP('',(#72));
#43=EDGE_LOOP('',(#73));
#44=EDGE_LOOP('',(#74));
#45=EDGE_LOOP('',(#75));
#46=CIRCLE('',#105,1.98);
#47=CIRCLE('',#106,1.98);
#48=CIRCLE('',#110,0.405);
#49=CIRCLE('',#111,0.405);
#50=CIRCLE('',#115,0.405);
#51=CIRCLE('',#116,0.405);
#52=VERTEX_POINT('',#153);
#53=VERTEX_POINT('',#155);
#54=VERTEX_POINT('',#160);
#55=VERTEX_POINT('',#162);
#56=VERTEX_POINT('',#167);
#57=VERTEX_POINT('',#169);
#58=EDGE_CURVE('',#52,#52,#46,.T.);
#59=EDGE_CURVE('',#53,#53,#47,.T.);
#60=EDGE_CURVE('',#54,#54,#48,.T.);
#61=EDGE_CURVE('',#55,#55,#49,.T.);
#62=EDGE_CURVE('',#56,#56,#50,.T.);
#63=EDGE_CURVE('',#57,#57,#51,.T.);
#64=ORIENTED_EDGE('',*,*,#58,.F.);
#65=ORIENTED_EDGE('',*,*,#59,.F.);
#66=ORIENTED_EDGE('',*,*,#59,.T.);
#67=ORIENTED_EDGE('',*,*,#58,.T.);
#68=ORIENTED_EDGE('',*,*,#60,.F.);
#69=ORIENTED_EDGE('',*,*,#61,.F.);
#70=ORIENTED_EDGE('',*,*,#61,.T.);
#71=ORIENTED_EDGE('',*,*,#60,.T.);
#72=ORIENTED_EDGE('',*,*,#62,.F.);
#73=ORIENTED_EDGE('',*,*,#63,.F.);
#74=ORIENTED_EDGE('',*,*,#63,.T.);
#75=ORIENTED_EDGE('',*,*,#62,.T.);
#76=CYLINDRICAL_SURFACE('',#104,1.98);
#77=CYLINDRICAL_SURFACE('',#109,0.405);
#78=CYLINDRICAL_SURFACE('',#114,0.405);
#79=STYLED_ITEM('',(#195),#91);
#80=STYLED_ITEM('',(#195),#92);
#81=STYLED_ITEM('',(#195),#93);
#82=STYLED_ITEM('',(#194),#13);
#83=STYLED_ITEM('',(#196),#94);
#84=STYLED_ITEM('',(#196),#95);
#85=STYLED_ITEM('',(#196),#96);
#86=STYLED_ITEM('',(#194),#14);
#87=STYLED_ITEM('',(#196),#97);
#88=STYLED_ITEM('',(#196),#98);
#89=STYLED_ITEM('',(#196),#99);
#90=STYLED_ITEM('',(#194),#15);
#91=ADVANCED_FACE('',(#25,#22),#76,.T.);
#92=ADVANCED_FACE('',(#26),#16,.F.);
#93=ADVANCED_FACE('',(#27),#17,.T.);
#94=ADVANCED_FACE('',(#28,#23),#77,.T.);
#95=ADVANCED_FACE('',(#29),#18,.F.);
#96=ADVANCED_FACE('',(#30),#19,.T.);
#97=ADVANCED_FACE('',(#31,#24),#78,.T.);
#98=ADVANCED_FACE('',(#32),#20,.T.);
#99=ADVANCED_FACE('',(#33),#21,.F.);
#100=CLOSED_SHELL('',(#91,#92,#93));
#101=CLOSED_SHELL('',(#94,#95,#96));
#102=CLOSED_SHELL('',(#97,#98,#99));
#103=AXIS2_PLACEMENT_3D('placement',#151,#119,#120);
#104=AXIS2_PLACEMENT_3D('',#152,#121,#122);
#105=AXIS2_PLACEMENT_3D('',#154,#123,#124);
#106=AXIS2_PLACEMENT_3D('',#156,#125,#126);
#107=AXIS2_PLACEMENT_3D('',#157,#127,#128);
#108=AXIS2_PLACEMENT_3D('',#158,#129,#130);
#109=AXIS2_PLACEMENT_3D('',#159,#131,#132);
#110=AXIS2_PLACEMENT_3D('',#161,#133,#134);
#111=AXIS2_PLACEMENT_3D('',#163,#135,#136);
#112=AXIS2_PLACEMENT_3D('',#164,#137,#138);
#113=AXIS2_PLACEMENT_3D('',#165,#139,#140);
#114=AXIS2_PLACEMENT_3D('',#166,#141,#142);
#115=AXIS2_PLACEMENT_3D('',#168,#143,#144);
#116=AXIS2_PLACEMENT_3D('',#170,#145,#146);
#117=AXIS2_PLACEMENT_3D('',#171,#147,#148);
#118=AXIS2_PLACEMENT_3D('',#172,#149,#150);
#119=DIRECTION('axis',(0.,0.,1.));
#120=DIRECTION('refdir',(1.,0.,0.));
#121=DIRECTION('center_axis',(1.,0.,0.));
#122=DIRECTION('ref_axis',(0.,-1.,0.));
#123=DIRECTION('center_axis',(1.,0.,0.));
#124=DIRECTION('ref_axis',(0.,-1.,0.));
#125=DIRECTION('center_axis',(-1.,0.,0.));
#126=DIRECTION('ref_axis',(0.,-1.,0.));
#127=DIRECTION('center_axis',(1.,0.,0.));
#128=DIRECTION('ref_axis',(0.,0.,-1.));
#129=DIRECTION('center_axis',(1.,0.,0.));
#130=DIRECTION('ref_axis',(0.,0.,-1.));
#131=DIRECTION('center_axis',(1.,0.,0.));
#132=DIRECTION('ref_axis',(0.,0.,1.));
#133=DIRECTION('center_axis',(1.,0.,0.));
#134=DIRECTION('ref_axis',(0.,0.,1.));
#135=DIRECTION('center_axis',(-1.,0.,0.));
#136=DIRECTION('ref_axis',(0.,0.,1.));
#137=DIRECTION('center_axis',(1.,0.,0.));
#138=DIRECTION('ref_axis',(0.,0.,-1.));
#139=DIRECTION('center_axis',(1.,0.,0.));
#140=DIRECTION('ref_axis',(0.,0.,-1.));
#141=DIRECTION('center_axis',(-1.,0.,0.));
#142=DIRECTION('ref_axis',(0.,0.,-1.));
#143=DIRECTION('center_axis',(-1.,0.,0.));
#144=DIRECTION('ref_axis',(0.,0.,-1.));
#145=DIRECTION('center_axis',(1.,0.,0.));
#146=DIRECTION('ref_axis',(0.,0.,-1.));
#147=DIRECTION('center_axis',(1.,0.,0.));
#148=DIRECTION('ref_axis',(0.,0.,-1.));
#149=DIRECTION('center_axis',(1.,0.,0.));
#150=DIRECTION('ref_axis',(0.,0.,-1.));
#151=CARTESIAN_POINT('',(0.,0.,0.));
#152=CARTESIAN_POINT('Origin',(0.,0.,0.));
#153=CARTESIAN_POINT('',(13.97,1.98,2.42480066231176E-16));
#154=CARTESIAN_POINT('Origin',(13.97,0.,0.));
#155=CARTESIAN_POINT('',(0.,1.98,2.42480066231176E-16));
#156=CARTESIAN_POINT('Origin',(0.,0.,0.));
#157=CARTESIAN_POINT('Origin',(0.,-2.02066721859313E-17,0.));
#158=CARTESIAN_POINT('Origin',(13.97,-2.02066721859313E-17,0.));
#159=CARTESIAN_POINT('Origin',(13.97,0.,0.));
#160=CARTESIAN_POINT('',(52.07,4.95981953654678E-17,-0.405));
#161=CARTESIAN_POINT('Origin',(52.07,0.,0.));
#162=CARTESIAN_POINT('',(13.97,4.95981953654678E-17,-0.405));
#163=CARTESIAN_POINT('Origin',(13.97,0.,0.));
#164=CARTESIAN_POINT('Origin',(13.97,0.,4.13318294712232E-18));
#165=CARTESIAN_POINT('Origin',(52.07,0.,4.13318294712232E-18));
#166=CARTESIAN_POINT('Origin',(0.,0.,0.));
#167=CARTESIAN_POINT('',(-38.1,4.95981953654678E-17,0.405));
#168=CARTESIAN_POINT('Origin',(-38.1,0.,0.));
#169=CARTESIAN_POINT('',(0.,4.95981953654678E-17,0.405));
#170=CARTESIAN_POINT('Origin',(0.,0.,0.));
#171=CARTESIAN_POINT('Origin',(0.,0.,-4.13318294712232E-18));
#172=CARTESIAN_POINT('Origin',(-38.1,0.,-4.13318294712232E-18));
#173=UNCERTAINTY_MEASURE_WITH_UNIT(LENGTH_MEASURE(0.01),#177,
'DISTANCE_ACCURACY_VALUE',
'Maximum model space distance between geometric entities at asserted c
onnectivities');
#174=UNCERTAINTY_MEASURE_WITH_UNIT(LENGTH_MEASURE(1.E-6),#177,
'DISTANCE_ACCURACY_VALUE',
'Maximum model space distance between geometric entities at asserted c
onnectivities');
#175=(
GEOMETRIC_REPRESENTATION_CONTEXT(3)
GLOBAL_UNCERTAINTY_ASSIGNED_CONTEXT((#173))
GLOBAL_UNIT_ASSIGNED_CONTEXT((#177,#180,#178))
REPRESENTATION_CONTEXT('','3D')
);
#176=(
GEOMETRIC_REPRESENTATION_CONTEXT(3)
GLOBAL_UNCERTAINTY_ASSIGNED_CONTEXT((#174))
GLOBAL_UNIT_ASSIGNED_CONTEXT((#177,#180,#178))
REPRESENTATION_CONTEXT('','3D')
);
#177=(
LENGTH_UNIT()
NAMED_UNIT(*)
SI_UNIT(.MILLI.,.METRE.)
);
#178=(
NAMED_UNIT(*)
SI_UNIT($,.STERADIAN.)
SOLID_ANGLE_UNIT()
);
#179=DIMENSIONAL_EXPONENTS(0.,0.,0.,0.,0.,0.,0.);
#180=(
CONVERSION_BASED_UNIT('degree',#182)
NAMED_UNIT(#179)
PLANE_ANGLE_UNIT()
);
#181=(
NAMED_UNIT(*)
PLANE_ANGLE_UNIT()
SI_UNIT($,.RADIAN.)
);
#182=PLANE_ANGLE_MEASURE_WITH_UNIT(PLANE_ANGLE_MEASURE(0.01745329252),#181);
#183=SHAPE_DEFINITION_REPRESENTATION(#184,#185);
#184=PRODUCT_DEFINITION_SHAPE('',$,#187);
#185=SHAPE_REPRESENTATION('',(#103),#175);
#186=PRODUCT_DEFINITION_CONTEXT('part definition',#191,'design');
#187=PRODUCT_DEFINITION('WW2A_NWW2A','WW2A_NWW2A',#188,#186);
#188=PRODUCT_DEFINITION_FORMATION('',$,#193);
#189=PRODUCT_RELATED_PRODUCT_CATEGORY('WW2A_NWW2A','WW2A_NWW2A',(#193));
#190=APPLICATION_PROTOCOL_DEFINITION('international standard',
'automotive_design',2009,#191);
#191=APPLICATION_CONTEXT(
'Core Data for Automotive Mechanical Design Process');
#192=PRODUCT_CONTEXT('part definition',#191,'mechanical');
#193=PRODUCT('WW2A_NWW2A','WW2A_NWW2A',$,(#192));
#194=PRESENTATION_STYLE_ASSIGNMENT((#197));
#195=PRESENTATION_STYLE_ASSIGNMENT((#198));
#196=PRESENTATION_STYLE_ASSIGNMENT((#199));
#197=SURFACE_STYLE_USAGE(.BOTH.,#200);
#198=SURFACE_STYLE_USAGE(.BOTH.,#201);
#199=SURFACE_STYLE_USAGE(.BOTH.,#202);
#200=SURFACE_SIDE_STYLE('',(#203));
#201=SURFACE_SIDE_STYLE('',(#204));
#202=SURFACE_SIDE_STYLE('',(#205));
#203=SURFACE_STYLE_FILL_AREA(#206);
#204=SURFACE_STYLE_FILL_AREA(#207);
#205=SURFACE_STYLE_FILL_AREA(#208);
#206=FILL_AREA_STYLE('',(#209));
#207=FILL_AREA_STYLE('',(#210));
#208=FILL_AREA_STYLE('',(#211));
#209=FILL_AREA_STYLE_COLOUR('',#212);
#210=FILL_AREA_STYLE_COLOUR('',#213);
#211=FILL_AREA_STYLE_COLOUR('',#214);
#212=COLOUR_RGB('',0.749019607843137,0.749019607843137,0.749019607843137);
#213=COLOUR_RGB('',0.270588235294118,0.270588235294118,0.270588235294118);
#214=COLOUR_RGB('',0.6,0.6,0.6);
ENDSEC;
END-ISO-10303-21;
