ISO-10303-21;
HEADER;
/* Generated by software containing ST-Developer
 * from STEP Tools, Inc. (www.steptools.com) 
 */

FILE_DESCRIPTION(
/* description */ (''),
/* implementation_level */ '2;1');

FILE_NAME(
/* name */ 'MCJ0805.stp',
/* time_stamp */ '2025-05-12T14:40:51-04:00',
/* author */ ('dmullane'),
/* organization */ (''),
/* preprocessor_version */ 'ST-DEVELOPER v20',
/* originating_system */ 'Autodesk Inventor 2025',
/* authorisation */ '');

FILE_SCHEMA (('AUTOMOTIVE_DESIGN { 1 0 10303 214 3 1 1 }'));
ENDSEC;

DATA;
#10=MECHANICAL_DESIGN_GEOMETRIC_PRESENTATION_REPRESENTATION('',(#274,#275,
#276,#277,#278,#279,#280,#281,#282,#283,#284,#285,#286,#287,#288,#289,#290,
#291,#292,#293,#294),#512);
#11=SHAPE_REPRESENTATION_RELATIONSHIP('SRR','None',#519,#12);
#12=ADVANCED_BREP_SHAPE_REPRESENTATION('',(#13,#14,#15),#511);
#13=MANIFOLD_SOLID_BREP('Solid1',#313);
#14=MANIFOLD_SOLID_BREP('Solid2',#314);
#15=MANIFOLD_SOLID_BREP('Solid2',#315);
#16=FACE_OUTER_BOUND('',#34,.T.);
#17=FACE_OUTER_BOUND('',#35,.T.);
#18=FACE_OUTER_BOUND('',#36,.T.);
#19=FACE_OUTER_BOUND('',#37,.T.);
#20=FACE_OUTER_BOUND('',#38,.T.);
#21=FACE_OUTER_BOUND('',#39,.T.);
#22=FACE_OUTER_BOUND('',#40,.T.);
#23=FACE_OUTER_BOUND('',#41,.T.);
#24=FACE_OUTER_BOUND('',#42,.T.);
#25=FACE_OUTER_BOUND('',#43,.T.);
#26=FACE_OUTER_BOUND('',#44,.T.);
#27=FACE_OUTER_BOUND('',#45,.T.);
#28=FACE_OUTER_BOUND('',#46,.T.);
#29=FACE_OUTER_BOUND('',#47,.T.);
#30=FACE_OUTER_BOUND('',#48,.T.);
#31=FACE_OUTER_BOUND('',#49,.T.);
#32=FACE_OUTER_BOUND('',#50,.T.);
#33=FACE_OUTER_BOUND('',#51,.T.);
#34=EDGE_LOOP('',(#184,#185,#186,#187));
#35=EDGE_LOOP('',(#188,#189,#190,#191));
#36=EDGE_LOOP('',(#192,#193,#194,#195));
#37=EDGE_LOOP('',(#196,#197,#198,#199));
#38=EDGE_LOOP('',(#200,#201,#202,#203));
#39=EDGE_LOOP('',(#204,#205,#206,#207));
#40=EDGE_LOOP('',(#208,#209,#210,#211));
#41=EDGE_LOOP('',(#212,#213,#214,#215));
#42=EDGE_LOOP('',(#216,#217,#218,#219));
#43=EDGE_LOOP('',(#220,#221,#222,#223));
#44=EDGE_LOOP('',(#224,#225,#226,#227));
#45=EDGE_LOOP('',(#228,#229,#230,#231));
#46=EDGE_LOOP('',(#232,#233,#234,#235));
#47=EDGE_LOOP('',(#236,#237,#238,#239));
#48=EDGE_LOOP('',(#240,#241,#242,#243));
#49=EDGE_LOOP('',(#244,#245,#246,#247));
#50=EDGE_LOOP('',(#248,#249,#250,#251));
#51=EDGE_LOOP('',(#252,#253,#254,#255));
#52=LINE('',#434,#88);
#53=LINE('',#436,#89);
#54=LINE('',#438,#90);
#55=LINE('',#439,#91);
#56=LINE('',#442,#92);
#57=LINE('',#444,#93);
#58=LINE('',#445,#94);
#59=LINE('',#448,#95);
#60=LINE('',#450,#96);
#61=LINE('',#451,#97);
#62=LINE('',#453,#98);
#63=LINE('',#454,#99);
#64=LINE('',#460,#100);
#65=LINE('',#462,#101);
#66=LINE('',#464,#102);
#67=LINE('',#465,#103);
#68=LINE('',#468,#104);
#69=LINE('',#470,#105);
#70=LINE('',#471,#106);
#71=LINE('',#474,#107);
#72=LINE('',#476,#108);
#73=LINE('',#477,#109);
#74=LINE('',#479,#110);
#75=LINE('',#480,#111);
#76=LINE('',#486,#112);
#77=LINE('',#488,#113);
#78=LINE('',#490,#114);
#79=LINE('',#491,#115);
#80=LINE('',#494,#116);
#81=LINE('',#496,#117);
#82=LINE('',#497,#118);
#83=LINE('',#500,#119);
#84=LINE('',#502,#120);
#85=LINE('',#503,#121);
#86=LINE('',#505,#122);
#87=LINE('',#506,#123);
#88=VECTOR('',#360,10.);
#89=VECTOR('',#361,10.);
#90=VECTOR('',#362,10.);
#91=VECTOR('',#363,10.);
#92=VECTOR('',#366,10.);
#93=VECTOR('',#367,10.);
#94=VECTOR('',#368,10.);
#95=VECTOR('',#371,10.);
#96=VECTOR('',#372,10.);
#97=VECTOR('',#373,10.);
#98=VECTOR('',#376,10.);
#99=VECTOR('',#377,10.);
#100=VECTOR('',#384,10.);
#101=VECTOR('',#385,10.);
#102=VECTOR('',#386,10.);
#103=VECTOR('',#387,10.);
#104=VECTOR('',#390,10.);
#105=VECTOR('',#391,10.);
#106=VECTOR('',#392,10.);
#107=VECTOR('',#395,10.);
#108=VECTOR('',#396,10.);
#109=VECTOR('',#397,10.);
#110=VECTOR('',#400,10.);
#111=VECTOR('',#401,10.);
#112=VECTOR('',#408,10.);
#113=VECTOR('',#409,10.);
#114=VECTOR('',#410,10.);
#115=VECTOR('',#411,10.);
#116=VECTOR('',#414,10.);
#117=VECTOR('',#415,10.);
#118=VECTOR('',#416,10.);
#119=VECTOR('',#419,10.);
#120=VECTOR('',#420,10.);
#121=VECTOR('',#421,10.);
#122=VECTOR('',#424,10.);
#123=VECTOR('',#425,10.);
#124=VERTEX_POINT('',#432);
#125=VERTEX_POINT('',#433);
#126=VERTEX_POINT('',#435);
#127=VERTEX_POINT('',#437);
#128=VERTEX_POINT('',#441);
#129=VERTEX_POINT('',#443);
#130=VERTEX_POINT('',#447);
#131=VERTEX_POINT('',#449);
#132=VERTEX_POINT('',#458);
#133=VERTEX_POINT('',#459);
#134=VERTEX_POINT('',#461);
#135=VERTEX_POINT('',#463);
#136=VERTEX_POINT('',#467);
#137=VERTEX_POINT('',#469);
#138=VERTEX_POINT('',#473);
#139=VERTEX_POINT('',#475);
#140=VERTEX_POINT('',#484);
#141=VERTEX_POINT('',#485);
#142=VERTEX_POINT('',#487);
#143=VERTEX_POINT('',#489);
#144=VERTEX_POINT('',#493);
#145=VERTEX_POINT('',#495);
#146=VERTEX_POINT('',#499);
#147=VERTEX_POINT('',#501);
#148=EDGE_CURVE('',#124,#125,#52,.T.);
#149=EDGE_CURVE('',#125,#126,#53,.T.);
#150=EDGE_CURVE('',#127,#126,#54,.T.);
#151=EDGE_CURVE('',#124,#127,#55,.T.);
#152=EDGE_CURVE('',#128,#124,#56,.T.);
#153=EDGE_CURVE('',#129,#127,#57,.T.);
#154=EDGE_CURVE('',#128,#129,#58,.T.);
#155=EDGE_CURVE('',#130,#128,#59,.T.);
#156=EDGE_CURVE('',#131,#129,#60,.T.);
#157=EDGE_CURVE('',#130,#131,#61,.T.);
#158=EDGE_CURVE('',#125,#130,#62,.T.);
#159=EDGE_CURVE('',#126,#131,#63,.T.);
#160=EDGE_CURVE('',#132,#133,#64,.T.);
#161=EDGE_CURVE('',#132,#134,#65,.T.);
#162=EDGE_CURVE('',#135,#134,#66,.T.);
#163=EDGE_CURVE('',#133,#135,#67,.T.);
#164=EDGE_CURVE('',#133,#136,#68,.T.);
#165=EDGE_CURVE('',#137,#135,#69,.T.);
#166=EDGE_CURVE('',#136,#137,#70,.T.);
#167=EDGE_CURVE('',#136,#138,#71,.T.);
#168=EDGE_CURVE('',#139,#137,#72,.T.);
#169=EDGE_CURVE('',#138,#139,#73,.T.);
#170=EDGE_CURVE('',#138,#132,#74,.T.);
#171=EDGE_CURVE('',#134,#139,#75,.T.);
#172=EDGE_CURVE('',#140,#141,#76,.T.);
#173=EDGE_CURVE('',#140,#142,#77,.T.);
#174=EDGE_CURVE('',#143,#142,#78,.T.);
#175=EDGE_CURVE('',#141,#143,#79,.T.);
#176=EDGE_CURVE('',#141,#144,#80,.T.);
#177=EDGE_CURVE('',#145,#143,#81,.T.);
#178=EDGE_CURVE('',#144,#145,#82,.T.);
#179=EDGE_CURVE('',#144,#146,#83,.T.);
#180=EDGE_CURVE('',#147,#145,#84,.T.);
#181=EDGE_CURVE('',#146,#147,#85,.T.);
#182=EDGE_CURVE('',#146,#140,#86,.T.);
#183=EDGE_CURVE('',#142,#147,#87,.T.);
#184=ORIENTED_EDGE('',*,*,#148,.T.);
#185=ORIENTED_EDGE('',*,*,#149,.T.);
#186=ORIENTED_EDGE('',*,*,#150,.F.);
#187=ORIENTED_EDGE('',*,*,#151,.F.);
#188=ORIENTED_EDGE('',*,*,#152,.T.);
#189=ORIENTED_EDGE('',*,*,#151,.T.);
#190=ORIENTED_EDGE('',*,*,#153,.F.);
#191=ORIENTED_EDGE('',*,*,#154,.F.);
#192=ORIENTED_EDGE('',*,*,#155,.T.);
#193=ORIENTED_EDGE('',*,*,#154,.T.);
#194=ORIENTED_EDGE('',*,*,#156,.F.);
#195=ORIENTED_EDGE('',*,*,#157,.F.);
#196=ORIENTED_EDGE('',*,*,#158,.T.);
#197=ORIENTED_EDGE('',*,*,#157,.T.);
#198=ORIENTED_EDGE('',*,*,#159,.F.);
#199=ORIENTED_EDGE('',*,*,#149,.F.);
#200=ORIENTED_EDGE('',*,*,#159,.T.);
#201=ORIENTED_EDGE('',*,*,#156,.T.);
#202=ORIENTED_EDGE('',*,*,#153,.T.);
#203=ORIENTED_EDGE('',*,*,#150,.T.);
#204=ORIENTED_EDGE('',*,*,#158,.F.);
#205=ORIENTED_EDGE('',*,*,#148,.F.);
#206=ORIENTED_EDGE('',*,*,#152,.F.);
#207=ORIENTED_EDGE('',*,*,#155,.F.);
#208=ORIENTED_EDGE('',*,*,#160,.F.);
#209=ORIENTED_EDGE('',*,*,#161,.T.);
#210=ORIENTED_EDGE('',*,*,#162,.F.);
#211=ORIENTED_EDGE('',*,*,#163,.F.);
#212=ORIENTED_EDGE('',*,*,#164,.F.);
#213=ORIENTED_EDGE('',*,*,#163,.T.);
#214=ORIENTED_EDGE('',*,*,#165,.F.);
#215=ORIENTED_EDGE('',*,*,#166,.F.);
#216=ORIENTED_EDGE('',*,*,#167,.F.);
#217=ORIENTED_EDGE('',*,*,#166,.T.);
#218=ORIENTED_EDGE('',*,*,#168,.F.);
#219=ORIENTED_EDGE('',*,*,#169,.F.);
#220=ORIENTED_EDGE('',*,*,#170,.F.);
#221=ORIENTED_EDGE('',*,*,#169,.T.);
#222=ORIENTED_EDGE('',*,*,#171,.F.);
#223=ORIENTED_EDGE('',*,*,#161,.F.);
#224=ORIENTED_EDGE('',*,*,#170,.T.);
#225=ORIENTED_EDGE('',*,*,#160,.T.);
#226=ORIENTED_EDGE('',*,*,#164,.T.);
#227=ORIENTED_EDGE('',*,*,#167,.T.);
#228=ORIENTED_EDGE('',*,*,#171,.T.);
#229=ORIENTED_EDGE('',*,*,#168,.T.);
#230=ORIENTED_EDGE('',*,*,#165,.T.);
#231=ORIENTED_EDGE('',*,*,#162,.T.);
#232=ORIENTED_EDGE('',*,*,#172,.F.);
#233=ORIENTED_EDGE('',*,*,#173,.T.);
#234=ORIENTED_EDGE('',*,*,#174,.F.);
#235=ORIENTED_EDGE('',*,*,#175,.F.);
#236=ORIENTED_EDGE('',*,*,#176,.F.);
#237=ORIENTED_EDGE('',*,*,#175,.T.);
#238=ORIENTED_EDGE('',*,*,#177,.F.);
#239=ORIENTED_EDGE('',*,*,#178,.F.);
#240=ORIENTED_EDGE('',*,*,#179,.F.);
#241=ORIENTED_EDGE('',*,*,#178,.T.);
#242=ORIENTED_EDGE('',*,*,#180,.F.);
#243=ORIENTED_EDGE('',*,*,#181,.F.);
#244=ORIENTED_EDGE('',*,*,#182,.F.);
#245=ORIENTED_EDGE('',*,*,#181,.T.);
#246=ORIENTED_EDGE('',*,*,#183,.F.);
#247=ORIENTED_EDGE('',*,*,#173,.F.);
#248=ORIENTED_EDGE('',*,*,#182,.T.);
#249=ORIENTED_EDGE('',*,*,#172,.T.);
#250=ORIENTED_EDGE('',*,*,#176,.T.);
#251=ORIENTED_EDGE('',*,*,#179,.T.);
#252=ORIENTED_EDGE('',*,*,#183,.T.);
#253=ORIENTED_EDGE('',*,*,#180,.T.);
#254=ORIENTED_EDGE('',*,*,#177,.T.);
#255=ORIENTED_EDGE('',*,*,#174,.T.);
#256=PLANE('',#338);
#257=PLANE('',#339);
#258=PLANE('',#340);
#259=PLANE('',#341);
#260=PLANE('',#342);
#261=PLANE('',#343);
#262=PLANE('',#344);
#263=PLANE('',#345);
#264=PLANE('',#346);
#265=PLANE('',#347);
#266=PLANE('',#348);
#267=PLANE('',#349);
#268=PLANE('',#350);
#269=PLANE('',#351);
#270=PLANE('',#352);
#271=PLANE('',#353);
#272=PLANE('',#354);
#273=PLANE('',#355);
#274=STYLED_ITEM('',(#529),#295);
#275=STYLED_ITEM('',(#529),#296);
#276=STYLED_ITEM('',(#529),#297);
#277=STYLED_ITEM('',(#529),#298);
#278=STYLED_ITEM('',(#529),#299);
#279=STYLED_ITEM('',(#529),#300);
#280=STYLED_ITEM('',(#528),#13);
#281=STYLED_ITEM('',(#530),#301);
#282=STYLED_ITEM('',(#530),#302);
#283=STYLED_ITEM('',(#530),#303);
#284=STYLED_ITEM('',(#530),#304);
#285=STYLED_ITEM('',(#530),#305);
#286=STYLED_ITEM('',(#530),#306);
#287=STYLED_ITEM('',(#530),#307);
#288=STYLED_ITEM('',(#530),#308);
#289=STYLED_ITEM('',(#530),#309);
#290=STYLED_ITEM('',(#530),#310);
#291=STYLED_ITEM('',(#530),#311);
#292=STYLED_ITEM('',(#530),#312);
#293=STYLED_ITEM('',(#528),#14);
#294=STYLED_ITEM('',(#528),#15);
#295=ADVANCED_FACE('',(#16),#256,.T.);
#296=ADVANCED_FACE('',(#17),#257,.T.);
#297=ADVANCED_FACE('',(#18),#258,.T.);
#298=ADVANCED_FACE('',(#19),#259,.T.);
#299=ADVANCED_FACE('',(#20),#260,.T.);
#300=ADVANCED_FACE('',(#21),#261,.F.);
#301=ADVANCED_FACE('',(#22),#262,.T.);
#302=ADVANCED_FACE('',(#23),#263,.T.);
#303=ADVANCED_FACE('',(#24),#264,.T.);
#304=ADVANCED_FACE('',(#25),#265,.T.);
#305=ADVANCED_FACE('',(#26),#266,.T.);
#306=ADVANCED_FACE('',(#27),#267,.T.);
#307=ADVANCED_FACE('',(#28),#268,.T.);
#308=ADVANCED_FACE('',(#29),#269,.T.);
#309=ADVANCED_FACE('',(#30),#270,.T.);
#310=ADVANCED_FACE('',(#31),#271,.T.);
#311=ADVANCED_FACE('',(#32),#272,.T.);
#312=ADVANCED_FACE('',(#33),#273,.T.);
#313=CLOSED_SHELL('',(#295,#296,#297,#298,#299,#300));
#314=CLOSED_SHELL('',(#301,#302,#303,#304,#305,#306));
#315=CLOSED_SHELL('',(#307,#308,#309,#310,#311,#312));
#316=DERIVED_UNIT_ELEMENT(#319,1.);
#317=DERIVED_UNIT_ELEMENT(#514,-3.);
#318=DIMENSIONAL_EXPONENTS(0.,1.,0.,0.,0.,0.,0.);
#319=(
CONVERSION_BASED_UNIT('gram',#321)
MASS_UNIT()
NAMED_UNIT(#318)
);
#320=(
MASS_UNIT()
NAMED_UNIT(*)
SI_UNIT(.KILO.,.GRAM.)
);
#321=MASS_MEASURE_WITH_UNIT(MASS_MEASURE(0.001),#320);
#322=DERIVED_UNIT((#316,#317));
#323=MEASURE_REPRESENTATION_ITEM('density measure',
POSITIVE_RATIO_MEASURE(1.),#322);
#324=PROPERTY_DEFINITION_REPRESENTATION(#329,#326);
#325=PROPERTY_DEFINITION_REPRESENTATION(#330,#327);
#326=REPRESENTATION('material name',(#328),#511);
#327=REPRESENTATION('density',(#323),#511);
#328=DESCRIPTIVE_REPRESENTATION_ITEM('Generic','Generic');
#329=PROPERTY_DEFINITION('material property','material name',#521);
#330=PROPERTY_DEFINITION('material property','density of part',#521);
#331=DATE_TIME_ROLE('creation_date');
#332=APPLIED_DATE_AND_TIME_ASSIGNMENT(#333,#331,(#521));
#333=DATE_AND_TIME(#334,#335);
#334=CALENDAR_DATE(2025,12,5);
#335=LOCAL_TIME(0,0,0.,#336);
#336=COORDINATED_UNIVERSAL_TIME_OFFSET(0,0,.BEHIND.);
#337=AXIS2_PLACEMENT_3D('',#430,#356,#357);
#338=AXIS2_PLACEMENT_3D('',#431,#358,#359);
#339=AXIS2_PLACEMENT_3D('',#440,#364,#365);
#340=AXIS2_PLACEMENT_3D('',#446,#369,#370);
#341=AXIS2_PLACEMENT_3D('',#452,#374,#375);
#342=AXIS2_PLACEMENT_3D('',#455,#378,#379);
#343=AXIS2_PLACEMENT_3D('',#456,#380,#381);
#344=AXIS2_PLACEMENT_3D('',#457,#382,#383);
#345=AXIS2_PLACEMENT_3D('',#466,#388,#389);
#346=AXIS2_PLACEMENT_3D('',#472,#393,#394);
#347=AXIS2_PLACEMENT_3D('',#478,#398,#399);
#348=AXIS2_PLACEMENT_3D('',#481,#402,#403);
#349=AXIS2_PLACEMENT_3D('',#482,#404,#405);
#350=AXIS2_PLACEMENT_3D('',#483,#406,#407);
#351=AXIS2_PLACEMENT_3D('',#492,#412,#413);
#352=AXIS2_PLACEMENT_3D('',#498,#417,#418);
#353=AXIS2_PLACEMENT_3D('',#504,#422,#423);
#354=AXIS2_PLACEMENT_3D('',#507,#426,#427);
#355=AXIS2_PLACEMENT_3D('',#508,#428,#429);
#356=DIRECTION('axis',(0.,0.,1.));
#357=DIRECTION('refdir',(1.,0.,0.));
#358=DIRECTION('center_axis',(0.,0.,1.));
#359=DIRECTION('ref_axis',(1.,0.,0.));
#360=DIRECTION('',(1.,0.,0.));
#361=DIRECTION('',(0.,1.,0.));
#362=DIRECTION('',(1.,0.,0.));
#363=DIRECTION('',(0.,1.,0.));
#364=DIRECTION('center_axis',(-1.,0.,0.));
#365=DIRECTION('ref_axis',(0.,0.,1.));
#366=DIRECTION('',(0.,0.,1.));
#367=DIRECTION('',(0.,0.,1.));
#368=DIRECTION('',(0.,1.,0.));
#369=DIRECTION('center_axis',(0.,0.,-1.));
#370=DIRECTION('ref_axis',(-1.,0.,0.));
#371=DIRECTION('',(-1.,0.,0.));
#372=DIRECTION('',(-1.,0.,0.));
#373=DIRECTION('',(0.,1.,0.));
#374=DIRECTION('center_axis',(1.,0.,0.));
#375=DIRECTION('ref_axis',(0.,0.,-1.));
#376=DIRECTION('',(0.,0.,-1.));
#377=DIRECTION('',(0.,0.,-1.));
#378=DIRECTION('center_axis',(0.,1.,0.));
#379=DIRECTION('ref_axis',(0.,0.,1.));
#380=DIRECTION('center_axis',(0.,1.,0.));
#381=DIRECTION('ref_axis',(0.,0.,1.));
#382=DIRECTION('center_axis',(-1.,0.,0.));
#383=DIRECTION('ref_axis',(0.,1.,0.));
#384=DIRECTION('',(0.,-1.,0.));
#385=DIRECTION('',(0.,0.,-1.));
#386=DIRECTION('',(0.,1.,0.));
#387=DIRECTION('',(0.,0.,-1.));
#388=DIRECTION('center_axis',(0.,-1.,0.));
#389=DIRECTION('ref_axis',(-1.,0.,0.));
#390=DIRECTION('',(1.,0.,0.));
#391=DIRECTION('',(-1.,0.,0.));
#392=DIRECTION('',(0.,0.,-1.));
#393=DIRECTION('center_axis',(1.,0.,0.));
#394=DIRECTION('ref_axis',(0.,-1.,0.));
#395=DIRECTION('',(0.,1.,0.));
#396=DIRECTION('',(0.,-1.,0.));
#397=DIRECTION('',(0.,0.,-1.));
#398=DIRECTION('center_axis',(0.,1.,0.));
#399=DIRECTION('ref_axis',(1.,0.,0.));
#400=DIRECTION('',(-1.,0.,0.));
#401=DIRECTION('',(1.,0.,0.));
#402=DIRECTION('center_axis',(0.,0.,1.));
#403=DIRECTION('ref_axis',(1.,0.,0.));
#404=DIRECTION('center_axis',(0.,0.,-1.));
#405=DIRECTION('ref_axis',(-1.,0.,0.));
#406=DIRECTION('center_axis',(1.,0.,0.));
#407=DIRECTION('ref_axis',(0.,-1.,0.));
#408=DIRECTION('',(0.,1.,0.));
#409=DIRECTION('',(0.,0.,-1.));
#410=DIRECTION('',(0.,-1.,0.));
#411=DIRECTION('',(0.,0.,-1.));
#412=DIRECTION('center_axis',(0.,1.,0.));
#413=DIRECTION('ref_axis',(1.,0.,0.));
#414=DIRECTION('',(-1.,0.,0.));
#415=DIRECTION('',(1.,0.,0.));
#416=DIRECTION('',(0.,0.,-1.));
#417=DIRECTION('center_axis',(-1.,0.,0.));
#418=DIRECTION('ref_axis',(0.,1.,0.));
#419=DIRECTION('',(0.,-1.,0.));
#420=DIRECTION('',(0.,1.,0.));
#421=DIRECTION('',(0.,0.,-1.));
#422=DIRECTION('center_axis',(0.,-1.,0.));
#423=DIRECTION('ref_axis',(-1.,0.,0.));
#424=DIRECTION('',(1.,0.,0.));
#425=DIRECTION('',(-1.,0.,0.));
#426=DIRECTION('center_axis',(0.,0.,1.));
#427=DIRECTION('ref_axis',(1.,0.,0.));
#428=DIRECTION('center_axis',(0.,0.,-1.));
#429=DIRECTION('ref_axis',(-1.,0.,0.));
#430=CARTESIAN_POINT('',(0.,0.,0.));
#431=CARTESIAN_POINT('Origin',(0.,0.,0.));
#432=CARTESIAN_POINT('',(0.,0.,0.));
#433=CARTESIAN_POINT('',(2.05,0.,0.));
#434=CARTESIAN_POINT('',(0.,0.,0.));
#435=CARTESIAN_POINT('',(2.05,0.436,0.));
#436=CARTESIAN_POINT('',(2.05,0.,0.));
#437=CARTESIAN_POINT('',(0.,0.436,0.));
#438=CARTESIAN_POINT('',(0.,0.436,0.));
#439=CARTESIAN_POINT('',(0.,0.,0.));
#440=CARTESIAN_POINT('Origin',(0.,0.,-1.3));
#441=CARTESIAN_POINT('',(0.,0.,-1.3));
#442=CARTESIAN_POINT('',(0.,0.,-1.3));
#443=CARTESIAN_POINT('',(0.,0.436,-1.3));
#444=CARTESIAN_POINT('',(0.,0.436,-1.3));
#445=CARTESIAN_POINT('',(0.,0.,-1.3));
#446=CARTESIAN_POINT('Origin',(2.05,0.,-1.3));
#447=CARTESIAN_POINT('',(2.05,0.,-1.3));
#448=CARTESIAN_POINT('',(2.05,0.,-1.3));
#449=CARTESIAN_POINT('',(2.05,0.436,-1.3));
#450=CARTESIAN_POINT('',(2.05,0.436,-1.3));
#451=CARTESIAN_POINT('',(2.05,0.,-1.3));
#452=CARTESIAN_POINT('Origin',(2.05,0.,0.));
#453=CARTESIAN_POINT('',(2.05,0.,0.));
#454=CARTESIAN_POINT('',(2.05,0.436,0.));
#455=CARTESIAN_POINT('Origin',(1.025,0.436,-0.65));
#456=CARTESIAN_POINT('Origin',(1.025,0.,-0.65));
#457=CARTESIAN_POINT('Origin',(1.65,-0.014,0.));
#458=CARTESIAN_POINT('',(1.65,0.,0.));
#459=CARTESIAN_POINT('',(1.65,-0.014,0.));
#460=CARTESIAN_POINT('',(1.65,0.,0.));
#461=CARTESIAN_POINT('',(1.65,0.,-1.3));
#462=CARTESIAN_POINT('',(1.65,0.,0.));
#463=CARTESIAN_POINT('',(1.65,-0.014,-1.3));
#464=CARTESIAN_POINT('',(1.65,0.,-1.3));
#465=CARTESIAN_POINT('',(1.65,-0.014,0.));
#466=CARTESIAN_POINT('Origin',(2.05,-0.014,0.));
#467=CARTESIAN_POINT('',(2.05,-0.014,0.));
#468=CARTESIAN_POINT('',(1.65,-0.014,0.));
#469=CARTESIAN_POINT('',(2.05,-0.014,-1.3));
#470=CARTESIAN_POINT('',(1.65,-0.014,-1.3));
#471=CARTESIAN_POINT('',(2.05,-0.014,0.));
#472=CARTESIAN_POINT('Origin',(2.05,0.,0.));
#473=CARTESIAN_POINT('',(2.05,0.,0.));
#474=CARTESIAN_POINT('',(2.05,-0.014,0.));
#475=CARTESIAN_POINT('',(2.05,0.,-1.3));
#476=CARTESIAN_POINT('',(2.05,-0.014,-1.3));
#477=CARTESIAN_POINT('',(2.05,0.,0.));
#478=CARTESIAN_POINT('Origin',(1.65,0.,0.));
#479=CARTESIAN_POINT('',(2.05,0.,0.));
#480=CARTESIAN_POINT('',(2.05,0.,-1.3));
#481=CARTESIAN_POINT('Origin',(1.85,-0.007,0.));
#482=CARTESIAN_POINT('Origin',(1.85,-0.007,-1.3));
#483=CARTESIAN_POINT('Origin',(0.4,0.,0.));
#484=CARTESIAN_POINT('',(0.4,-0.014,0.));
#485=CARTESIAN_POINT('',(0.4,0.,0.));
#486=CARTESIAN_POINT('',(0.4,-0.014,0.));
#487=CARTESIAN_POINT('',(0.4,-0.014,-1.3));
#488=CARTESIAN_POINT('',(0.4,-0.014,0.));
#489=CARTESIAN_POINT('',(0.4,0.,-1.3));
#490=CARTESIAN_POINT('',(0.4,-0.014,-1.3));
#491=CARTESIAN_POINT('',(0.4,0.,0.));
#492=CARTESIAN_POINT('Origin',(0.,0.,0.));
#493=CARTESIAN_POINT('',(0.,0.,0.));
#494=CARTESIAN_POINT('',(2.05,0.,0.));
#495=CARTESIAN_POINT('',(0.,0.,-1.3));
#496=CARTESIAN_POINT('',(2.05,0.,-1.3));
#497=CARTESIAN_POINT('',(0.,0.,0.));
#498=CARTESIAN_POINT('Origin',(0.,-0.014,0.));
#499=CARTESIAN_POINT('',(0.,-0.014,0.));
#500=CARTESIAN_POINT('',(0.,0.,0.));
#501=CARTESIAN_POINT('',(0.,-0.014,-1.3));
#502=CARTESIAN_POINT('',(0.,0.,-1.3));
#503=CARTESIAN_POINT('',(0.,-0.014,0.));
#504=CARTESIAN_POINT('Origin',(0.4,-0.014,0.));
#505=CARTESIAN_POINT('',(0.,-0.014,0.));
#506=CARTESIAN_POINT('',(0.,-0.014,-1.3));
#507=CARTESIAN_POINT('Origin',(0.2,-0.007,0.));
#508=CARTESIAN_POINT('Origin',(0.2,-0.007,-1.3));
#509=UNCERTAINTY_MEASURE_WITH_UNIT(LENGTH_MEASURE(0.01),#513,
'DISTANCE_ACCURACY_VALUE',
'Maximum model space distance between geometric entities at asserted c
onnectivities');
#510=UNCERTAINTY_MEASURE_WITH_UNIT(LENGTH_MEASURE(0.01),#513,
'DISTANCE_ACCURACY_VALUE',
'Maximum model space distance between geometric entities at asserted c
onnectivities');
#511=(
GEOMETRIC_REPRESENTATION_CONTEXT(3)
GLOBAL_UNCERTAINTY_ASSIGNED_CONTEXT((#509))
GLOBAL_UNIT_ASSIGNED_CONTEXT((#513,#515,#516))
REPRESENTATION_CONTEXT('','3D')
);
#512=(
GEOMETRIC_REPRESENTATION_CONTEXT(3)
GLOBAL_UNCERTAINTY_ASSIGNED_CONTEXT((#510))
GLOBAL_UNIT_ASSIGNED_CONTEXT((#513,#515,#516))
REPRESENTATION_CONTEXT('','3D')
);
#513=(
LENGTH_UNIT()
NAMED_UNIT(*)
SI_UNIT(.MILLI.,.METRE.)
);
#514=(
LENGTH_UNIT()
NAMED_UNIT(*)
SI_UNIT(.CENTI.,.METRE.)
);
#515=(
NAMED_UNIT(*)
PLANE_ANGLE_UNIT()
SI_UNIT($,.RADIAN.)
);
#516=(
NAMED_UNIT(*)
SI_UNIT($,.STERADIAN.)
SOLID_ANGLE_UNIT()
);
#517=SHAPE_DEFINITION_REPRESENTATION(#518,#519);
#518=PRODUCT_DEFINITION_SHAPE('',$,#521);
#519=SHAPE_REPRESENTATION('',(#337),#511);
#520=PRODUCT_DEFINITION_CONTEXT('part definition',#525,'design');
#521=PRODUCT_DEFINITION('MCJ0805','MCJ0805',#522,#520);
#522=PRODUCT_DEFINITION_FORMATION('',$,#527);
#523=PRODUCT_RELATED_PRODUCT_CATEGORY('MCJ0805','MCJ0805',(#527));
#524=APPLICATION_PROTOCOL_DEFINITION('international standard',
'automotive_design',2009,#525);
#525=APPLICATION_CONTEXT(
'Core Data for Automotive Mechanical Design Process');
#526=PRODUCT_CONTEXT('part definition',#525,'mechanical');
#527=PRODUCT('MCJ0805','MCJ0805',$,(#526));
#528=PRESENTATION_STYLE_ASSIGNMENT((#531));
#529=PRESENTATION_STYLE_ASSIGNMENT((#532));
#530=PRESENTATION_STYLE_ASSIGNMENT((#533));
#531=SURFACE_STYLE_USAGE(.BOTH.,#540);
#532=SURFACE_STYLE_USAGE(.BOTH.,#541);
#533=SURFACE_STYLE_USAGE(.BOTH.,#542);
#534=SURFACE_STYLE_RENDERING_WITH_PROPERTIES($,#552,(#537));
#535=SURFACE_STYLE_RENDERING_WITH_PROPERTIES($,#553,(#538));
#536=SURFACE_STYLE_RENDERING_WITH_PROPERTIES($,#554,(#539));
#537=SURFACE_STYLE_TRANSPARENT(0.);
#538=SURFACE_STYLE_TRANSPARENT(0.);
#539=SURFACE_STYLE_TRANSPARENT(0.);
#540=SURFACE_SIDE_STYLE('',(#543,#534));
#541=SURFACE_SIDE_STYLE('',(#544,#535));
#542=SURFACE_SIDE_STYLE('',(#545,#536));
#543=SURFACE_STYLE_FILL_AREA(#546);
#544=SURFACE_STYLE_FILL_AREA(#547);
#545=SURFACE_STYLE_FILL_AREA(#548);
#546=FILL_AREA_STYLE('',(#549));
#547=FILL_AREA_STYLE('',(#550));
#548=FILL_AREA_STYLE('',(#551));
#549=FILL_AREA_STYLE_COLOUR('',#552);
#550=FILL_AREA_STYLE_COLOUR('',#553);
#551=FILL_AREA_STYLE_COLOUR('',#554);
#552=COLOUR_RGB('',0.749019607843137,0.749019607843137,0.749019607843137);
#553=COLOUR_RGB('',0.270588235294118,0.270588235294118,0.270588235294118);
#554=COLOUR_RGB('',0.6,0.6,0.6);
ENDSEC;
END-ISO-10303-21;
